Bon Jovi

Bon Jovi
Everyday Ver 3 (Guitar tab)

Bon Jovi �Everyday�
Tabbed by Mike N.
Intro with talk box (sounds fine without 1 better with 1)
1)-------------------------------------
2)-------------------------------------
3)---------------------------2---------
4)------2p0---2p0---2p0-2---------
5)------2p0---2p0---2p0-0---------
6)0000------0------0---------------
Pm-- - -

Main Riff (Played During 1st verse, and at chorus)

1)------------------------------------
2)------------------------------------
3)------------------------------------
4)-------3p0-------3p0----------------
5)-------3p0-------3p0----------------
6)0000------0-0-0---------------------

�Good bye� Riff

1)-----------------------------------
2)-----------------------------------
3)-----------------------------------
4)-3--(let ring)-5s3--(let ring)--7--
5)-3-------------5s3--------------7--
6)-1-------------3s1--------------5--

Solo (this sounds right im not 100 % sure but it sounds good and its not hard)
1)-555555555s777777777----------------------------------------
2)---------------------------------------------------------------------
3)--------------------------------4h5-4h5-4h5-2-4h5-4h5-4h5 2-

1)-5555555555s777777777s888888888s101010101010101010s12 17 ( 15x trem pick)
2)-------------------------------------------------------------------------
3)-------------------------------------------------------------------------
the 10s are 10 not 1 and 0
Any ?S Comments? E-mail me at metallica_mike6388@yahoo.com

OptimusPrime

Toegevoegd door OptimusPrime op zo 01 dec, 2002 8:31 am

Auteur: ?
Componist: ?
Uitgever: ?
Taal: Engels

Reacties

CommonCrawl [Bot]

Volg Muzikum