Bon Jovi

Bon Jovi
Never Say Goodbye Ver 2 (Guitar tab)

Author/Artist: Bon Jovi
Title: Never Say Goodbye
Album: Slippery When Wet
Transcribed by: ben_jovi2001
Email: ben_jovi2001@yahoo.com

Great song!
Make the guitar cry
enjoy, and God bless :)

-|--------------------------------------------------------------------------|-
-|--------------------------------------------------------------------------|-
-|----------------6b---------------6---7---6-----------7---6----------------|-
-|------------9----------------9---------------9---7-----------9---7--------|-
-|----7----------------7-----------------------------------------------7----|-
-|--------------------------------------------------------------------------|-
Intro with chorus rhythm, pre-verse

-|0----4----2----1------0----4----2----1------0----4----3----2----3----2----|-
-|2----5----3----3------2----5----3----3------2----5----3----3----3----3----|-
-|2----6----2----2------2----6----2----2------2----6----2----2----2----2----|-
-|2----6----0----0------2----6----0----0------2----6----0----0----0----0----|-
-|0----4----------------0----4----------------0----4------------------------|-
-|0----4----------------0----4----------------0----4------------------------|-
Verse

-|0--------4--------5--------5-----------0--------4--------5--------5-------|-
-|2--------5--------7--------6-----------2--------5--------7--------6-------|-
-|2--------6--------7--------7-----------2--------6--------7--------7-------|-
-|2--------6--------7--------7-----------2--------6--------7--------7-------|-
-|0--------4--------5--------5-----------0--------4--------5--------5-------|-
-|0--------4--------5--------5-----------0--------4--------5--------5-------|-
Chorus

-|----7-9b-----7-9-10-9-7----10-9-7--------7-9b----7-9-10-9-7----10-9-7-----|-
-|------------------------10--------10------------------------10--------10--|-
-|9--------9---------------------------9--------9--------------------------9|-
-|--------------------------------------------------------------------------|-
-|--------------------------------------------------------------------------|-
-|--------------------------------------------------------------------------|-
Guitar riff for chorus

-|-----------------------------10p9-10p9--------------------------------------
-|---------------------------------------10-----------------------------------
-|------6-7b-6-----/11--9-----------------------------------------------------
-|--7-9--------9-7-------------------------------------7-------7-7/9----------
-|7------------------------------------------------7-9-----7-9----------------
-|-----------------------------------------------9----------------------------
Solo with verse rhythm

--------7-10b-9-9p7---/14--12-----22p21-22p21------15-15-15-17-17-17-13-13-13-
-----10------------10-------------------------22------------------------------
---9--------------------------------------------------------------------------
-7----------------------------------------------------------------------------
------------------------------------------------------------------------------
------------------------------------------------------------------------------
fast picking |=========================

------------------------------15-15-15-17-17-17-13-13-13----------------------
--15-15-15-17-17-17-13-13-13------------------------------15-15-15-17-17-17---
------------------------------------------------------------------------------
------------------------------------------------------------------------------
------------------------------------------------------------------------------
------------------------------------------------------------------------------
============================================================================

-----------17---------------------------------------------------------------|-
--13-13-13------------------------------------------------------------------|-
----------------------------------------------------------------------------|-
----------------------------------------------------------------------------|-
----------------------------------------------------------------------------|-
----------------------------------------------------------------------------|-
===========|

------------------------------------------------------------------------------
------------------------------------------------------------------------------
------------------------------------------------------------------------------
------------------------------------------------------------------------------
------------------------------------------------------------------------------
------------------------------------------------------------------------------
play chorus 2x with chorus riff and end on A

OptimusPrime

Toegevoegd door OptimusPrime op zo 01 dec, 2002 8:31 am

Auteur: ?
Componist: ?
Uitgever: ?
Taal: Engels

Reacties

CommonCrawl [Bot]

Volg Muzikum