Bon Jovi

Bon Jovi
It S My Life Ver 2 (Guitar tab)

Artist: Bon Jovi
Song : It�s my life
Album : Crush

Tabbed by : J�rg Nieveler , Germany
E-Mail : cooladresse@t-online.de


normal Tuning: Eadgbe

Piano Intro :

C minor (Cm)


In the Intro play this:
Cm G# G

e|---3--3--3--3--3--4--4--4--4--3--3--3--3------|
b|---4--4--4--4--4--4--4--4--4--3--3--3--3------|
g|---5--5--5--5--5--5--5--5--5--4--4--4--4------|
d|---5--5--5--5--5--6--6--6--6--5--5--5--5------|
a|---3--3--3--3--3--6--6--6--6--5--5--5--5------|
E|---3--3--3--3--3--4--4--4--4--3--3--3--3------|

After that the Verse started :

Cm

e|--3--3--x--x--3--3--|
b|--4--4--x--x--4--4--| Play that in Verse !
g|--5--5--x--x--5--5--|
d|--5--5--x--x--5--5--|
a|--3--3--x--x--3--3--|
E|--3--3--x--x--3--3--|

Chorus :

Cm G# Eb5 Bb
Cm G# Bb


Solo :

* bend a half step ( use Talk Box )
e|-------------------------------------------------------------------------------------------|
b|-------------------------------------------------------------------------------------------|
g|--7b-7-7b-7-7b-7-7b-7-7b-7-5---------------10b(12)-(four times)-10-8-10p-8-----------------|
d|------------------------------------8h-10---------------------------------10~------1-------|
a|---------------------------------------------------------------------------------1---1-3~--|
E|------------------------------------------------------------------------------3------------|


Chords used :

Cm G# Eb5 Bb G
e|----3----4---------6----3----|
b|----4----4----8----6----3----|
g|----5----5----8----7----4----|
d|----5----6----8----8----5----|
a|----3----6----6----8----5----|
E|----3----4---------6----3----|


b = bending (x)
h = hammer on
p = pull off
~ = vibrato
x = fret muting

That�s all !

I know that there �re some mistakes. Sorry, but you could send me an e-mail to
improve this tab. But I also would like to know what you thinking about it.
So, send me an E - mail ! ( cooladresse@t-online.de)


Thank you !

Enjoy !

OptimusPrime

Toegevoegd door OptimusPrime op zo 01 dec, 2002 8:31 am

Auteur: ?
Componist: ?
Uitgever: ?
Taal: Engels

Reacties

CommonCrawl [Bot]

Volg Muzikum