Bon Jovi

Bon Jovi
Livin On A Prayer Solo (Guitar tab)

Artist- Bon Jovi
Song- Prayer
Album- Slippery when wet (1986)
Tabbed by Aaron Roberts

E--------------12h14-15-----------
B----------------------12h13-15^15
G---------------------------------
D------5h7-7----------------------
A-7p5h7-----5-5-------------------
E---------------------------------

E----------------
B-12-12-13-12-7--
G-12-12-14-12--7-
D---------------7
A----------------
E----------------

E-12h14-15----------------------------------------15h17^17
B---------12h13-15^-15-12--15^-15---------15h16h17--------
G------------------------12-------14h15h16----------------
D---------------------------------------------------------
A---------------------------------------------------------
E---------------------------------------------------------

OptimusPrime

Toegevoegd door OptimusPrime op zo 01 dec, 2002 8:31 am

Auteur: ?
Componist: ?
Uitgever: ?
Taal: Engels

Reacties

CommonCrawl [Bot]

Volg Muzikum