Bon Jovi

Bon Jovi
In These Arms Solo (Guitar tab)

I took my a while to figure this one out so I hope you appreciate what i have done of it.

E--------------------------------------------------------------------------------------�
A--------------------------------------------------------------------------------------�
D----9--11-----------11----------------------------------------------------------11----�
G-----------9--9~-9~----11b-11b-9--11~---9----------12------------12--9---11--9-----9~-�
B-------------------------------------------13b--9------9h13---9-----------------------�
e--------------------------------------------------------------------------------------�

E-------------------------------------------------------------------------------�
A-------------------------------------------------------------------------------�
D-------------------------------------------------------------------------------�
G-/13-----------------------------------------------------14--12--14--12--11~---�
B-----12h14----------------------------------------14-12------------------------�
e-----------12---15b--15b--12--14---/17--15--12h14------------------------------�

Then comes the bit where he sings 'these were our words, they keep me strong, Baby!!'
This is the wee guitar bit after it

E-----------------------�
A-----------------------�
D-----------------------�
G---------------11--9~~-�
B--/14---12--9----------�
e-----------------------�

OptimusPrime

Toegevoegd door OptimusPrime op zo 01 dec, 2002 8:31 am

Auteur: ?
Componist: ?
Uitgever: ?
Taal: Engels

Reacties

CommonCrawl [Bot]

Volg Muzikum