Bon Jovi

Bon Jovi
Born To Be My Baby (Guitar tab)

#---------------------------------YOU BEST NOTE-------------------------------#




Born to Be My BAby

Bon Jovi (New Jersey)

Transribed by Brian S.


Intro Chords :
F# D E A Esus2
F# D E


Verse 1 :
e----------------------------------------------------------------|
b----------------------------------------------------------------|
g----------------------------------------------------------------|
d---4-4-4-4--4-4-4-4---------------------------------------------|
a---4-4-4-4--4-4-4-4-----------2vv-------------------------------|
e---2-2-2-2--2-2-2-2--2--4--5------------------------------------|

Next :
e---------------------------------------------------|
b---------------------------------------------------|
g----------------------------7----------7---6-------|
d---4--4--4-4---4--4-4-4-----7----7-----7---7-------|
a---4--4--4-4---4--4-4-4-----5----7-----5---7-------|
e---2--2--2-2---2--2-2-2----------5---------5-------|
(they cant take away... our love...our lives)

Verse 2 : AH
e---------------------------------|
b-----------11--------------------|
g---11---xx-11---11---------------|
d---11---xx-11---11---------------|
a---9----xx------9----------------|
e---------------------5---4---2---|

Pre-Chorus :

F G Am

Solo :
e-------------------------------------------------------------|
b--------------------------------------12-13-15--15bvvv--15b--|
g--14b16vvvvvvvr14p12---------------14------------------------|
d---------------------14vvvvvvv--14---------------------------|
a-------------------------------------------------------------|
e-------------------------------------------------------------|

e------------------------------------------------------------|
b--15bvvr--13--15bvvv-r15vvv-13------------------------------|
g-------------------------------14vvvvvv------------------12-|
d-------------------------------------------------12--14-----|
a-----------------------------------------14--15-------------|
e------------------------------------------------------------|

e---------------------------------------------------------------|
b--12bv13r12p10----12bv13r12p10-12--12bv13r12p10----10-12p10----|
g---------------12-------------------------------12----------12-|
d---------------------------------------------------------------|
a---------------------------------------------------------------|
e---------------------------------------------------------------|

e-------------------------19vb20vvvv-19b20r19-17--19b20--19b20--|
b---------------------------------------------------------------|
g--12vvvvvvvvvvvv-----------------------------------------------|
d---------------------------------------------------------------|
a-----------------x\--------------------------------------------|
e------------------x\-------------------------------------------|

e--19b20--19b20--20-19----------------17h20-20p17--------|
b----------------------20vvvv---17h20-------------20p17--|
g-----------------------------19-------------------------|
d--------------------------------------------------------|
a--------------------------------------------------------|
e--------------------------------------------------------|

e----------------------------------------------------------|
b--20p17--------------------20p17--------------------------|
g--------19p17-19p17--------------19p17----17-16vvvvvv-----|
d--------------------19p17--------------19-------------\7--|
a----------------------------------------------------------|
e----------------------------------------------------------|

light PH--------\
e-------------------------------------------20b22vvvvvv--|
b-------------------------22vvvvvvvvvvvvv\---------------|
g--7b9vv-r7vv-5-7vb9vvvv---------------------------------|
d-------------------------17vvvvvvvvvvvvv\---------------|
a--------------------------^-----------------------------|
e---------------------------dive bomb--------------------|


e-r20vvv--17vvvvvv--|
b-------------------|
g-------------------|
d-------------------|
a-------------------|

OptimusPrime

Toegevoegd door OptimusPrime op zo 01 dec, 2002 8:31 am

Auteur: ?
Componist: ?
Uitgever: ?
Taal: Engels
Beschikbaar op: Greatest Hits (2010), Live to Air (2014), Transmission Impossible (2015)

Reacties

CommonCrawl [Bot]

Volg Muzikum