Bon Jovi

Bon Jovi
Thnak You For Loving Me Ver 3 (Guitar tab)

Name: Federico

Tabs: Thank You For Loving Me
By: Bon Jovi
Album: Crush
Tabbed by: Federico comments to bonjovi_federico@hotmail.com

Piano Intro Tabbed For Guitar

e----0--2-p-0-------------0--2-p-0------0-h-2-p-0----
B--3-------------------3-------------3-------------2-
G-------------2---4----------------------------------
D----------------------------------------------------
A----------------------------------------------------
E----------------------------------------------------

Lead Intro Riff during the 2nd

e--5-\-7-\-5--------------5-\-7-5--------------------
B------------5-\-7-\-5------------5-\-7-\-5----------
G-----------------------7-------------------7-9-9-6--
D----------------------------------------------------
A----------------------------------------------------
E----------------------------------------------------

A-DOWN RIFF

e-----------
B--5--5--2--
G--2--2--2--
D--2--2--2--
A--0--0--0--
E--x--x--x--

A-RUN-UP RIFF

e-----------
B--2--3--5--
G--2--2--2--
D--2--2--2--
A--0--0--0--
E--x--x--x--

Bm/Bb (used in the chorus)

e--x--x--
B--3--3--
G--4--4--
D--4--4--
A--2--1--
E--x--x--

INTRO (CHORDS)

D,G,Bm,A-DOWN RIFF(2x)(2x play with lead intro riff)

VERSE 1:
G
It's hard for me to say the things
D
I want to say sometimes
G
There's no one here but you and me
D
And that broken old street light
Bm
Lock the doors
G A-RUN-UP RIFF
We'll leave the world outside
Bm G
All I've got to give to you
A
Are these five words tonight

1st Chorus:
D G
Thank you for loving me
A A-RUN-UP RIFF
For being my eyes
D
When I couldn't see
Bm/Bb
For parting my lips
E
When I couldn't breathe
D G A-RUN-UP RIFF
Thank you for loving me
D G A-DOWN RIFF
Thank you for loving me

VERSE 2: (same as Verse 1)
I never knew I had a dream
Until that dream was you
When I look into your eyes
The sky's a different blue
Cross my heart
I wear no disguise
If I tried, you'd make believe
That you believed my lies

2nd Chorus:
D G
Thank you for loving me
A A-RUN-UP RIFF
For being my eyes
D
When I couldn't see
Bm/Bb
For parting my lips
E
When I couldn't breathe
D G A-RUN-UP RIFF
Thank you for loving me

BRIDGE:
G
You pick me up when I fall down
A
You ring the bell before they count me out
E Bm
If I was drowning you would part the sea
G D A
And risk your own life to rescue me

Solo

e------------------------------------14-h-15-14--12--14-
B--7-h-5--7-h-5--/-7------------------------------------
G---------------------7-h-9-----------------------------
D----------------------------9--9-\-7-------------------
A-------------------------------------------------------
E-------------------------------------------------------

VERSE 3:
D
Lock the doors
G A-RUN-UP RIFF
We'll leave the world outside
D G
All I've got to give to you
A D
Are these five words tonight

Last Chorus:
D G
Thank you for loving me
A A-RUN-UP RIFF
For being my eyes
D
When I couldn't see
Bm/Bb
For parting my lips
E
When I couldn't breathe
D G
Thank you for loving me
A-RUN-UP RIFF
When I couldn't fly
D
Oh, you gave me wings
Bm/Bb
You parted my lips
E
When I couldn't breathe
D G A-RUN-UP RIFF
Thank you for loving me
D G A-RUN-UP RIFF
Thank you for loving me
D G A-RUN-UP RIFF
Thank you for loving me
Oh For loving me

Play Intro Again
(Figure out the lead yourself..its almost the exact
same as the other lead intro lead!)

If you want to comment or correct something please e-mail me.

OptimusPrime

Toegevoegd door OptimusPrime op zo 01 dec, 2002 8:31 am

Auteur: ?
Componist: ?
Uitgever: ?
Taal: Engels

Reacties

CommonCrawl [Bot]

Volg Muzikum