Bon Jovi

Bon Jovi
You Give Love A Bad Name Solo (Guitar tab)

#---------------------------------YOU BEST NOTE-------------------------------#



#---------------------------------YOU BEST NOTE-------------------------------#




You Give Love a Bad Name

Bon Jovi

by Brian S.


Solo
Depress Bar...
e-------------------------8--8/10--10/11--11/13--13----|
b--8vvvvvvvvvvvvvv-\4vv--------------------------------|
g-------------------------5--5/7---7//8---8//10--10----|
d--5vvvvvvvvvvvvvv-\1vv--------------------------------|
a------------------------------------------------------|
e------------------------------------------------------|
____________________________
/ w/ bar () indicate pick
e---/15----/18---20--20--------------------------------|^scrapes or tapping
b------------------------------------------------------| around indicated
g---/12----/15---17--17----15^12--15^12--15^12--15^12--| fret
d--------------------------------------(22)--------(21)|
a------------------------------------------------------|
e------------------------------------------------------|
_________________________________________________________
\
e-----------------------------------------------------------|-
b-----------------------------------------------------------|-
g--15^12--15^12--15^12--15^12---15bvvvv--15bvvv--17bvvvvvv--|-
d-------(20)------------------------------------------------|-
a-----------------------------------------------------------|-
e-----------------------------------------------------------|-

PM-------------------------------------\ depress bar
e--------------------------------------------------------|
b-----------------------------------------8vvvvvvvv------|
g------------------------------3-----5----7vvvvvvvv------|
d------1-3-----1-3-----1-3-/5----/7----------------------|
a--1-3-----1-3-----1-3-----------------------------------|
e--------------------------------------------------------|

OptimusPrime

Toegevoegd door OptimusPrime op zo 01 dec, 2002 8:31 am

Auteur: ?
Componist: ?
Uitgever: ?
Taal: Engels

Reacties

CommonCrawl [Bot]

Volg Muzikum