Bon Jovi

Bon Jovi
Living On A Prayer Solo (Guitar tab)

Author/Artist: Bon Jovi
Title: Living on a Prayer solo
Album: Slippery When Wet
Transcribed by: ben_jovi2001
Email: ben_jovi2001@yahoo.com

here's the solo to the best 80s song!!!
enjoy, and God bless :)

-----------------------12-14-15-----------------------------------------------
--------------------------------15-12-13-15-17b-15-------12-13-12-------------
---------------------------------------------------------12-14-12--11b--------
--------5-7-7b-7-----------------------------------------------12-----12------
-7-5-7-----------5-------------------------------------------------------12---
------------------------------------------------------------------------------
|p.h. |p.h

----12-14-15-------------------------------------------------15----15-17-17b--
-------------15-12-13-12---17b-17b---------------------15h17----17------------
------------------------12-----------------------14h16------------------------
------------------------------------------------------------------------------
------------------------------------------------------------------------------
------------------------------------------------------------------------------

OptimusPrime

Toegevoegd door OptimusPrime op zo 01 dec, 2002 8:31 am

Auteur: ?
Componist: ?
Uitgever: ?
Taal: Engels

Reacties

CommonCrawl [Bot]

Volg Muzikum