Bon Jovi

Bon Jovi
Shot Through The Heart (Guitar tab)

Shot Through the Heart

Bon Jovi

by Brian S.

Intro :
e-----------------------------------------------------------|
b-----------------------------------------------------------|
g-------10b~~--r10~~--8---10b-r10--8---------------10b~~~~--|
d-------------------------------------10~~--8--10-----------|
a-x\--------------------------------------------------------|
e--x\-------------------------------------------------------|

e-------------------------------------------------------------|
b-------------------------------------------------------------|
g--r10~~~~--8--10b-r10--8~~~---10b~~--r10~~--8---10b-r10--8---|
d-------------------------------------------------------------|
a-------------------------------------------------------------|
e-------------------------------------------------------------|

e----------------------------------|
b----------------------------------|
g----------------10b~~~~~--10~~~~--|
d--10~~~-8--10---------------------|
a----------------------------------|
e----------------------------------|

2nd part: PM 3x artificial whammy bar
harmonic dive in and out
e---------------------------------|----^-----|----^-------|
b---------------------------------|----^-----|----^-------|
g-------------------8--8----------|----5-----|----8-------|
d---10--10---8--8---8--8---10--10-|----------|----8-------|
a---10--10---8--8---6--6---10--10-|----------|----6-------|
e---8---8----6--6----------8---8--|----------|------------|
2nd time 3rd time

Verses :
e----------------------------------------|
b----------------------------------------|
g-------------------8---8----------------|
d---10--10--8---8---8---8---10--10-------|
a---10--10--8---8---6---6---10--10-------|
e---8---8---6---6-----------8---8--------|

Chorus :
e-------------------------------------------------------------|
b-------------------------------------------------------------|
g------------------------------------------------12~~--10-/12-|
d--5--5--5--5---5---6--6-----3--3--3--5--3--3----12~~--10-/12-|
a--5--5--5--5---5---6--6-----3--3--3--5--3--3----10~~--8--/10-|
e--3--3--3--3---3---4--4-----1--1--1--3--1--1-----------------|
Shot through the heart...


Solo : patern of picking is down up & fast
e-------------------------------------------------------------|
b---------------------------------13-13-/15-15--16-16--18-18--|
g--10b~~~~~~~~~~~~------r10~~\--------------------------------|
d---^-----------------------------10-10-/12-12--13-13--15-15--|
a-^--^--------------------------------------------------------|
e^----^-------------------------------------------------------|
gradual dive bomb
_________with bar__________________
e---------20--20\------/-----------------------------------|
b--20-20---------------------------------------------------|
g---------17--17\------17p15----15-17p15----15-17p15----15-|
d--17-17---------------------17----------17----------17----|
a----------------------------------------------------------|
e----------------------------------------------------------|
___________with bar_______________________________ Pm---------|
e-------------------------------------------------\-----------|
b-------------------------------------------------------------|
g-17p15----15--17p15----15--15b~~~~---15b~~--17b~~------------|
d-------17-----------17---------------------------------------|
a-------------------------------------------------------------|
e----------------------------------------------------6--8--9--|
_w/_bar__
Pm-------------------------------| / \
e-----------------------------------------------|
b-----------------------------------------------|
g-------------------------------------15~~~~~---|
d-------------------------------------15~~~~~---|
a-------------------------------------13~~~~~---|
e--8--9--11--9--11--13--/17--18~~~--------------|
Ohhhh!!!!

OptimusPrime

Toegevoegd door OptimusPrime op zo 01 dec, 2002 8:31 am

Auteur: ?
Componist: ?
Uitgever: ?
Taal: Engels
Beschikbaar op: Transmission Impossible (2015)

Reacties

CommonCrawl [Bot]

Volg Muzikum