Bon Jovi

Bon Jovi
Bad Medicine (Guitar tab)

bad medicine

bon jovi

by Brian S

e------------------------------------------------|
b------------------------------------------------|
g------------------------------------------------|
d--2--2--2--2--2--2--2--2--2--2--2--2--2--2-2--2-|
a--2--2--2--2--2--2--2--2--2--2--2--2--2--2-2--2-|
e--0--0--0--0--0--0--0--0--0--0--0--0--0--0-0--0-|

e-----------------------------------------------|
b-----------------------------------------------|
g-----------------------------------------------|
d--7--5--2----5----2------------7----5-4---2----|
a--7--5--2----5----2------------7----5-4---2----|
e--5--3--0----3----0------------5----3-2---0----|
Your love is like bad me-di-cine

OptimusPrime

Toegevoegd door OptimusPrime op zo 01 dec, 2002 8:31 am

Auteur: ?
Componist: ?
Uitgever: ?
Taal: Engels
Beschikbaar op: Greatest Hits (2010)

Reacties

CommonCrawl [Bot]

Volg Muzikum