Bon Jovi

Bon Jovi
Keep The Faith (Guitar tab)

BON JOVI:KEEP THE FAITH
Tabbed by Csaba Horvath

Sorry,it's only a part of the song,not the whole song.

INTRO:

e--|-------3~~~--------|-------------------|-------------------|-------1~~~--------|
H--|-------3~~~--------|-------------------|-------------------|-------3~~~--------|
G--|-------------------|-------------------|-------------------|-------------------|
D--|-------------------|-------------------|-------------------|-------------------|
A--|-------------------|-------------------|-------------------|-------------------|
E--|--(3)--------------|-------------------|-------------------|-------------------|

e--|-------------------|-------------------|-------3~~~--------|-------------------|
H--|-------------------|-------------------|-------3~~~--------|-------------------|
G--|-------------------|-------------------|-------------------|-------------------|
D--|-------------------|-------------------|-------------------|-------------------|
A--|-------------------|-------------------|-------------------|-------------------|
E--|-------------------|-------------------|--(3)--------------|-------------------|

THE BASS INTRO ARRANGED FOR GUITAR:

RIFF A:
e--|-------------------|-------------------|-------------------|-------------------|
H--|-------------------|-------------------|-------------------|-------------------|
G--|-------------------|-------------------|-------------------|-------------------|
D--|----------5-3----5-|----------5-3----5-|----------5-3----5-|----------5-3----5-|
A--|--------------3-3--|--------------3-3--|--3-3-3-3-----3-3--|--------------3-3--|
E--|--3-3-3-3----------|--3-3-3-3----------|-------------------|--3-3-3-3----------|

RIFF B:
e--|-------------------|-------------------|-------------------|-------------------|
H--|-------------------|-------------------|-------------------|-------------------|
G--|--4----------------|-------------------|--5-----------3----|--4----------------|
D--|--5----------------|-------------------|--5-----------3----|--5----------------|
A--|--5----------------|-------------------|-------------------|--5----------------|
E--|-------------------|-------------------|-------------------|-------------------|


- PLAY RIFF A TWICE.
- IF YOU WANT TO ONLY ACCOMPANY THE BASS INTRO,THEN PLAY RIFF B FOR THE
SECOND TIME.

OptimusPrime

Toegevoegd door OptimusPrime op zo 01 dec, 2002 8:31 am

Auteur: ?
Componist: ?
Uitgever: ?
Taal: Engels

Reacties

CommonCrawl [Bot]

Volg Muzikum