Blur

Blur
Song 2 Ver 3 (Guitar tab)

this is a great song, very fun, and easy to play...this tab
sounds almost perfect to me...but tell me what you think.

drum intro, then:
---------------------------------------------you can add slides
---------------------------------------------between the chords if it
10-10--xx--8-8-8--xx--13-13--15--17-17-17-17-sounds better to you...to
10-10--xx--8-8-8--xx--13-13--15--17-17-17-17-me it does.
-8--8--xx--6-6-6--xx--11-11--13--15-15-15-15-
-8--8--xx--6-6-6--xx--11-11--13--15-15-15-15-2x w/o dist...4x w/dist
(you sing "Woo Hoo" after 2nd time playing)

verse:(w/o dist.)
---------------------------------------------
---------------------------------------------
10-10--xx--8-8-8--xx--13-13--15--17-17-17-17-
10-10--xx--8-8-8--xx--13-13--15--17-17-17-17-
-8--8--xx--6-6-6--xx--11-11--13--15-15-15-15-
-8--8--xx--6-6-6--xx--11-11--13--15-15-15-15- 4 times
1.I got my head checked...
2.By a jumbo jet...
3.It wasnt easy...
4.But nothing is...no

chorus:(w/distortion)
---------------------------------------------
---------------------------------------------
10-10--xx--8-8-8--xx--13-13--15--17-17-17-17-
10-10--xx--8-8-8--xx--13-13--15--17-17-17-17-
-8--8--xx--6-6-6--xx--11-11--13--15-15-15-15-
-8--8--xx--6-6-6--xx--11-11--13--15-15-15-15- 3 times
1.Woo Hoo!...well i feel heavy metal!
2.Woo Hoo!...and im pins and im needles!
3.Woo Hoo!...well i lie and im easy!...

--------------------------------------------------
--------------------------------------------------
----------------------------6-6-6-6-6-6-6-6-6-6-6-
3-3-3-3-3-3-3/6-6-6-6-6-6-6-6-6-6-6-6-6-6-6-6-6-6-...etc
3-3-3-3-3-3-3/6-6-6-6-6-6-6-4-4-4-4-4-4-4-4-4-4-4-
1-1-1-1-1-1-1/4-4-4-4-4-4-4-----------------------
All of the time and im never sure why i need you...Pleased to meet you!

-----------------------------------------------
-----------------------------------------------
-----------------------------------------------
3--3/6/3--3/6/3--3-3/6-6--8--10-10-10-10-------
3--3/6/3--3/6/3--3-3/6-6--8--10-10-10-10-------
1--1/4/1--1/4/1--1-1/4-4--6---8--8--8--8-------2 times...



verse:(w/o dist.)
---------------------------------------------
---------------------------------------------
10-10--xx--8-8-8--xx--13-13--15--17-17-17-17-
10-10--xx--8-8-8--xx--13-13--15--17-17-17-17-
-8--8--xx--6-6-6--xx--11-11--13--15-15-15-15-
-8--8--xx--6-6-6--xx--11-11--13--15-15-15-15- 4 times
1.I got my head (or hair?)done...
2.When i was young...
3.Its not my problem...
4.Its not my...problem...


chorus:(w/distortion)
---------------------------------------------
---------------------------------------------
10-10--xx--8-8-8--xx--13-13--15--17-17-17-17-
10-10--xx--8-8-8--xx--13-13--15--17-17-17-17-
-8--8--xx--6-6-6--xx--11-11--13--15-15-15-15-
-8--8--xx--6-6-6--xx--11-11--13--15-15-15-15- 3 times
1.Woo Hoo!...well i feel heavy metal!
2.Woo Hoo!...and im pins and im needles!
3.Woo Hoo!...well i lie and im easy!...

--------------------------------------------------
--------------------------------------------------
----------------------------6-6-6-6-6-6-6-6-6-6-6-
3-3-3-3-3-3-3/6-6-6-6-6-6-6-6-6-6-6-6-6-6-6-6-6-6-
3-3-3-3-3-3-3/6-6-6-6-6-6-6-4-4-4-4-4-4-4-4-4-4-4-
1-1-1-1-1-1-1/4-4-4-4-4-4-4-----------------------
All of the time and im never sure why i need you...Pleased to meet you!

-----------------------------------------------
-----------------------------------------------
-----------------------------------------------
3--3/6/3--3/6/3--3-3/6-6--8--10-10-10-10-------
3--3/6/3--3/6/3--3-3/6-6--8--10-10-10-10-------
1--1/4/1--1/4/1--1-1/4-4--6---8--8--8--8-------4 times...
1.Yeah Yeah!
2.Yeah Yeah!
3.Yeah Yeah!
4.Oh Yeah...

on the last time(the 4th time) you slide down:
---------------
---------------
---------------
--10/----------
--10/----------
---8/----------

also, every time the one guitar plays the distortion part, a second
guitar plays this fast:

-----------------------------------its kinda hard to hear but it makes
-----------------------------------a difference when your playing it..
13-13-13-13-13-13-13-13-13-13-13-13
-----------------------------------
-----------------------------------
-----------------------------------

Well, thas it...it probably isnt the exact way blur plays it, but it
sounds the same...for praises, thanks,and bitches,
email me at Dazedsmurf420@hotmail.com

OptimusPrime

Toegevoegd door OptimusPrime op zo 01 dec, 2002 8:33 am

Auteur: ?
Componist: ?
Uitgever: ?
Taal: Engels

Reacties

CommonCrawl [Bot]

Volg Muzikum