The Bloodhound Gang

The Bloodhound Gang
Kiss Me (Guitar tab)

Song : Kiss Me Where It Smells Funny
Artist : Bloodhound Gang
Album : One Fierce Beer Coaster
Tabbed by Jamie (guitarded75@hotmail.com)
Notation
^= Let Note Ring
/= Slide Up
\= Slide Down

Ok this is a great song and a great tab, all the other tabs on the net or this song suck so here is my 100% correct tab.

Intro (after a few seconds of drums)
e--------------------------------------------------------------------
b--------------------------------------------------------------------
G--------------------------------------------------------------------
D---------------------------------------------5-5-------------------
A---------------------------------------------5-5-------------------
E---------------------------------------------3-3-------------------

Then the chorus which can be played 2 ways;
e--------------------------------------------------------------------
b--------------------------------------------------------------------
G-------------------------------------------------------------------
D---------------------------------0---------------------------------
A----0-1-2----0-1-2----0-1-2----2-1-0-------------------------
E--0---------0---------0-------------------------------------------

Or
e-------------------------------------------------------------------
b-------------------------------------------------------------------
G------------------------------------------------------------------
D------------------------------------------------------------------
A--------------------------------5---------------------------------
E--0-5-6-7-0-5-6-7-0-5-6-7---7-6-5--------------------------

Post-Chorus
e-------------------------------------------------------------------
b-------------------------------------------------------------------
G------------------------------------------------------------------
D--2-2-2-2-2-2-2-2-2-2-2-5-5---------------------------------
A--2-2-2-2-2-2-2-2-2-2-2-5-5---------------------------------
E--0-0-0-0-0-0-0-0-0-0-0-3-3---------------------------------






Verse ( ) Only First time
e------------------------------------------------------------------------------
b------------------------------------------------------------------------------
G------------------------------------------------------------------------------
D--2-2-2-2-2-2-2-2-2-2-2-2-5/9-7-7-7-7-7-7-7-7-7-7-7-7-5/9--------
A--2-2-2-2-2-2-2-2-2-2-2-2-5/9-7-7-7-7-7-7-7-7-7-7-7-7-5/9--------
E--0-0-0-0-0-0-0-0-0-0-0-0-3/7-5-5-5-5-5-5-5-5-5-5-5-5-3/7---------

e---------------------------------------------------------------------------------
b---------------------------------------------------------------------------------
G---------------------------------------------------------------------------------
D--7-7-7-7-7-7-7-7-7-7-7-7-9-7-5-2--2-2-2-2-2-2-2-2-2-2-2-2-5-(5)--
A--7-7-7-7-7-7-7-7-7-7-7-7-9-7-5-2--2-2-2-2-2-2-2-2-2-2-2-2-5-(5)--
E--5-5-5-5-5-5-5-5-5-5-5-5-7-5-3-0--0-0-0-0-0-0-0-0-0-0-0-0-3-(3)--

Bridge Gtr2 after 2x Gtr1
Gtr1
e------------------------------------------------------------------------------
b------------------------------------------------------------------------------
G------------------------------------------------------------------------------
D--2-2--2-5-5--5-5-5--7-9-9/12\9-----------------------------------------
A--2-2--2-5-5--5-5-5--7-9-9/12\9-----------------------------------------
E--0-0--0-3-3--3-5-5--5-7-7/10\7-----------------------------------------

Gtr2
e-------------------------------------------------------------------------------
b-------------------------------------------------------------------------------
G-------------------------------------------------------------------------------
D-------------------------------------------------------------------------------
A-------------------------------------------------------------------------------
E--0-0-0-0-3b-0--0-3-3-3-3-5^--3-5-5-5-5-7-5--5-7-7/10\7-----------

Order
Intro
Chorus x4
Post-Chorus x4
Verse x2
Chorus x4
Post-Chorus x4
Verse x2
Chorus x4
Bridge � Gtr1 x7-Gtr2 x5
Chorus x6
Any questions, Queries, death threats, marriage proposals t;o
Guitarded75@hotmail.com

OptimusPrime

Toegevoegd door OptimusPrime op zo 01 dec, 2002 8:34 am

Auteur: ?
Componist: ?
Uitgever: ?
Taal: Engels

Reacties

CommonCrawl [Bot]

Volg Muzikum