Beck

Beck
Novacane (Guitar tab)

#
#






Date: Mon, 30 Dec 1996 19:12:20 -0800
From: Barbara Ann Gebuhr
Subject: Tab: Partial "Novacane" by Beck

Transcribed by Bradley and Diana Morrissey
Tabbed by Ira Wilbur
Source: Beck "Odelay" and a live Beck Performance on Much Music

This is only the Midsection of the song it might be a help for someone on
the whole song.


:Bass only twice through I think...
G---------------------------------
D---------------------------------
A--------------5/3----------------
E---3--6/8--3-------3--6/8-3---2/1

:Guitar and Bass multiple times afterwards..
G--------------7/5-----------------
D---5--8/10-5--7/5--5--8/10-5---4/3
A---5--8/10-5--5/3--5--8/10-5---4/3
E---3--6/8--3-------3--6/8--3---2/1

OptimusPrime

Toegevoegd door OptimusPrime op zo 18 nov, 2001 11:14 pm

Auteur: ?
Componist: ?
Uitgever: ?
Taal: Engels

Reacties

CommonCrawl [Bot]

Volg Muzikum