The Beatles

The Beatles
Revolution Ver 2 (Guitar tab)

revolution

chords
Cm F7 Ab Bb G Bb6
3 1 4 6 3 3
4 1 4 6 3 3
5 2 5 7 4 3
5 1 6 8 5 3
3 3 6 8 5 1
# 1 4 6 3 #

intro
Bb F7
3x
-5s6-6-6-6-6-6-6-6-6-6-6- ---------------11------
-5s6-6-6-6-6-6-6-6-6-6-6- -8b9-6-9-11b13---------
------------------------- ------------------10---
------------------------- ---------------------x-
------------------------- -----------------------
------------------------- -----------------------

riff 1 riff 2 riff 3
Bb Eb F7
-------------- -------------- -------------
-------------- -------------- -------------
-------------- -------------- -------------
-8---8-8----8- -8---8-8h10-8- -3---3-3---3-
-8---8-8h10-8- -6---6-6----6- -3---3-3h5-3-
-------------- -------------- -------------

verses
riff 1 riff 2
Bb Eb
(1)you say you want a revolution well you know
(2)you say youve got a real solution well you know
(3)you say youll change the constitution well you know

Bb
we all want to change the world
we,d all love to see the plan
we all want to change your head

Eb
you tell me that its evolution well you know
you ask me for a contribution well you know
you tell me its the instition well you know

riff 3
F7
we all want to change the world
were all doing what we can
you better free you mind instead

pre chorus
Cm F7
but when you talk about de struction
but when you want money for minds that hate
but if you go carrying pictures of chairman mao

Cm Ab Bb G F7
dont you know that you can count me out
all i can tell you is brother you have to wait
you aint going to make it with anyone a ny how


dont you know it gonna be

chorus

riff 4
Eb
--------------------------10-
--------------------------11-
--------------------------10-
------------------8-10s12----
-6-6-6-6-6-6-6-10------------
-----------------------------

riff 1 riff 4
Bb Eb Bb Eb Bb Eb
alright alright alright

F7
---------------------------------
---------------------------------
---------------------------------
-------1-------3-------1---------
-3-1h3-----3h5-----1h3-----3h5-5-
-1-------1-------1-------1-------

solo
F7 Bb Eb F7
Rpt
---6-5-4---------8-----6- --------
---------8-7-6-----6-8--- -6------
-6-------------8--------- ---8b10-
------------------------- --------
------------------------- --------
------------------------- --------

coda
Bb B6 Bb6

OptimusPrime

Toegevoegd door OptimusPrime op zo 01 dec, 2002 8:46 am

Auteur: ?
Componist: ?
Uitgever: ?
Taal: Engels

Reacties

CommonCrawl [Bot]

Volg Muzikum