The Beatles

The Beatles
Anytime At All (Guitar tab)

anytime at all

chords
Bm D A G A7 A7/C# A/C# G/Bb D/A
2 2 0 3 3 3 0 3 2
3 3 2 3 2 2 2 3 3
4 2 2 0 2 2 2 0 2
4 0 2 0 2 2 2 0 0
2 # 0 2 0 4 4 1 0
# # # 3 # # # # #
chorus

Bm A D
-2-2-------2- -0------------- -3-2-0---2-
-3-3-------3- -2-3-2-3-2-0-2- -2-----3---
-4-4-------2- -2------------- -3---------
-4-4-------0- -2------------- -0---------
-2-2-2-0-2--- -0------------- -----------
------------- --------------- -----------

Bm D A Bm
anytime at all anytime at all anytime at all

G
all youve got to do is call

A7 D
and ill be there

verses

D A/C#
(1)if you need somebody to love
(2)if the sun has faded away

Bm G/Bb
just look into my eyes
all try to make it shine

D/A A7/C# D
ill be there to make you feel right
there is nothing i wont do

D A/C#
if you feeling sorry and sad
if you need a shoulder to cry on

Bm G/Bb D/A
i really sympathize dont you be sad
i hope it will be mine call me tonight

A7/C# D
just call me tonight
ill come to you

bridge

-0-2-3-0-0-0-2-2-2-3------------------------------------------
-0-2-3-0-0-0-2-2-2-3------------------------------------------
-0-2-4-0-0-0-2-2-2-4--2-3-4-4-5-6-6-5-7-7-7-7-7-7-9-9-9-9-7-9-
-2-4-5-2-2-2-4-4-4-5------------------------------------------
-2-4-5-2-2-2-4-4-4-5--0-1-2-2-3-4-4-3-5-5-5-5-5-5-7-7-7-7-5-7-
-0-2-3-0-0-0-2-2-2-3------------------------------------------

--------------
--------------
-12-11-9-7-11-
--------------
-10-9--7-5-9--
--------------

last chord
-10-10-
-10-10-
-11-11-
-12-12-
-------
-------

OptimusPrime

Toegevoegd door OptimusPrime op zo 01 dec, 2002 8:46 am

Auteur: ?
Componist: ?
Uitgever: ?
Taal: Engels

Reacties

CommonCrawl [Bot]

Volg Muzikum