The Beatles

The Beatles
Lady Madonna (Guitar tab)

Lady Madonna
The Beatles


Lead:
-------------------------------------------------------------------
-------------------------------------------------------------------
----------------3----------------------3---------------------------
--------2-2-4--------------------2-2-4-----------------------------
0-0-2-4------------------0-0-2-4-----------------------------------
-------------------------------------------------------------------


--------------------------------------------------------------------
--------------------------------------------------------------------
--------------------------------------------------------------------
-----------------3-3-5-5-7------------------------------------------
-0-0-2-2-3-3-5-5----------------------------------------------------

OptimusPrime

Toegevoegd door OptimusPrime op zo 01 dec, 2002 8:46 am

Auteur: ?
Componist: ?
Uitgever: ?
Taal: Engels

Reacties

CommonCrawl [Bot]

Volg Muzikum