The Beatles

The Beatles
Girl Solo (Guitar tab)

Author/Artist: The Beatles
Title: Girl
Transcribed by: Jany
Email:janyx@post.sk


Guitar1.
|--------------------4-3-1---------------------------4-3-1---------|
|-4---6---8---9-8--6-------4-6-4-3-4---6---8---9-8-6-------4-6-4---|
|---5---7---8------------------------5---7---8-------------------5-|
|------------------------------------------------------------------|
|------------------------------------------------------------------|
|------------------------------------------------------------------|

Guitar2.
|-----------------------------------------------8-8-6-6-4-4-3-3-4-4-3-3-1-1|
|-8-8-----9-9-------11-11-------13-13-11-11-9-9----------------------------|
|-----8-8-----10-10-------12-12--------------------------------------------|
|--------------------------------------------------------------------------|
|--------------------------------------------------------------------------!
|--------------------------------------------------------------------------|


|--3-3-----4-4-----6-6-----8-8-6-6-4-4-8-8-6-6-4-4-3-3-4-4-3-3---|
|------4-4-----6-6-----8-8-------------------------------------4-|
|----------------------------------------------------------------|
|----------------------------------------------------------------|
|----------------------------------------------------------------|
|----------------------------------------------------------------|

OptimusPrime

Toegevoegd door OptimusPrime op zo 01 dec, 2002 8:46 am

Auteur: ?
Componist: ?
Uitgever: ?
Taal: Engels

Reacties

CommonCrawl [Bot]

Volg Muzikum