The Beatles

The Beatles
Dig It (Guitar tab)

DIG IT

Words & Music by John Lennon, Paul McCartney, George Harrison & Richard Starkey

Album: Let It Be (1970)



Bb F Bb C Bb F

|-1-------|-1------|-1------|-3-------|-1-------|-1--------|
|-3-------|-1------|-3------|-5-------|-3-------|-1--------|
|-3-------|-2------|-3------|-5-------|-3-------|-2--------|
|-3-------|-3------|-3------|-5-------|-3-------|-3--------|
|-1-------|-3------|-1------|-3-------|-1-------|-3--------|
|-1-------|-1------|-1------|-3-------|-1-------|-1--------|

(1)Like a Roll - ing Stone______ Like a Roll-ing Stone___
(3)F.B.I.____ and the C.I._____ A.
(5)B.B. King___ and Do-ris Day
(7)Dig it Dig it Dig it Dig it Dig it Dig it (Fade Out)


Bb C Bb F Bb C

|-1-----|-3---------|-1--------|-1-----|-1------|-3----------|
|-3-----|-5---------|-3--------|-1-----|-3------|-5----------|
|-3-----|-5---------|-3--------|-2-----|-3------|-5----------|
|-3-----|-5---------|-3--------|-3-----|-3------|-5----------|
|-1-----|-3---------|-1--------|-3-----|-1------|-3----------|
|-1-----|-3---------|-1--------|-1-----|-1------|-3----------|

(2)I like a Roll-ing Stone____ Like the
(4)And the B. B.____C.
(6)Matt Bus-by Dig it Dig it Dig it




Note:
----------------
Strum each chord in each measure as "1 2& 3."
Song is written in 3/4 time.



Submitted by: Michael Hatch
Email: watching_wheels@hotmail.com
Date: 8/13/01

OptimusPrime

Toegevoegd door OptimusPrime op zo 01 dec, 2002 8:46 am

Auteur: ?
Componist: ?
Uitgever: ?
Taal: Engels

Reacties

CommonCrawl [Bot]

Volg Muzikum