The Beatles

The Beatles
In My Life Intro Ver 4 (Guitar tab)

Intro for 'In My Life' by The Beatles:

(standard tuning)

---------------
----10-------9-
-6-----7-8-9---
---------------
---------------
---------------


End Riff:

(standard tuning)

|------------5--|
|--9--7-9----5--|
|--7---------6--|
|--9---------7--|
|--7------------|

OptimusPrime

Toegevoegd door OptimusPrime op zo 01 dec, 2002 8:46 am

Auteur: ?
Componist: ?
Uitgever: ?
Taal: Engels

Reacties

CommonCrawl [Bot]

Volg Muzikum