The Beatles

The Beatles
Twist And Shout Ver 5 (Guitar tab)

#

TWIST AND SHOUT
As recorded by The Beatles
(From the Album PLEASE, PLEASE ME)

Words and Music by Medley/Russel
Transcribed by Guigsy (J.F.)

Basic Riff:
|------------|---------------|------------------|----------------|
|------------|---------------|------------------|----------------|
|------------|---------------|------------------|----------------|
|------------|---------------|------------------|----------------|
|------0-2-4-|-5--5----2---0-|--0-0-0--0--0-2-4-|-5--5----2---0--|
|------------|-------3---3---|------------------|-------3---3----|


Solo Riff:
|-------------------|---------------|------------|---------------|
|-------------------|---------------|------------|---------------|
|-------------------|----------4--2-|------0-----|----------4--2-|
|-------------------|-------5-------|----2----4--|-------5-------|
|-0-0-0-0--0--0-2-4-|-5---5---------|------------|-5---5---------|
|-------------------|---------------|------------|---------------|


|------------|---------------|------------|---------------|
|------------|---------------|------------|---------------|
|------0-----|----------4--2-|------0-----|----------4--2-|
|----2----4--|-------5-------|----2----4--|-------5-------|
|------------|-5---5---------|------------|-5---5---------|
|------------|---------------|------------|---------------|


|------------|
|------------|
|------0-----|
|----2----4--|
|------------|
|------------|


Then:
Ahh Ahh Ahh Ahh
E---------------------------------------0--------------3------------
B------------------------2--------------2--------------2------------
G---------2--------------2--------------2--------------2------------
D---------2-----2-----2--2-----2-----2--------2-----2---------------
A---------0--0-----0--------0-----0--------0-----0------------------
E-------------------------------------------------------------------


Anding Riff:
Then:
Ahh Ahh Ahh Ahh
E---------------------------------------0--------------3-------
B------------------------2--------------2--------------2-------
G---------2--------------2--------------2--------------2-------
D---------2-----2-----2--2-----2-----2--------2-----2----------
A---------0--0-----0--------0-----0--------0-----0-------------
E--------------------------------------------------------------

|-----------------------|------------------|-----------*|
|-----------------------|------------------|-----------*|
|-----------------------|------------------|-----------*|
|-----------------------|------------------|-----------*|
|-0--0--0--0-0--0-0--0--|---0--1--2--3--4--|-5---------*|
|-----------------------|------------------|-----------*|


That�s it. If there are some mistakes, please mail me.
If You have a better version of this song, please send me it.
Thank You.

OptimusPrime

Toegevoegd door OptimusPrime op zo 01 dec, 2002 8:46 am

Auteur: ?
Componist: ?
Uitgever: ?
Taal: Engels

Reacties

CommonCrawl [Bot]

Volg Muzikum