Beastie Boys

Beastie Boys
Fight For Your Right (Guitar Tab)

Date: Mon, 17 Sep 2001 13:31:58 +0200
From: tinus@utctu1.ct.utwente.nl (Martijn Oversteegen)
From: Mauro Dallapina
Subject: b/beastie_boys/fight_for_your_right.tab

Here is my own tabbing of FIGHT FOR YOUR RIGHT as is recorded on the
Beastie Boys album Licensed To Ill.
I found on the Olga archive already exists a tab by
tinus@utctu1.ct.utwente.nl (Martijn Oversteegen), but it looks not
accurate, the solo is wrong and it is not mentioned that the guitar tuning
is half step down and not standard...


----------------------------------------------------------------------


song: FIGHT FOR YOUR RIGHT - Beastie Boys

tabbed by: Mauro Dallapina - hce@iol.it

date: 2001/09/05


----------------------------------------------------------------------


guitar tuning: half step down ( Eb Ab Db Gb Bb eb )


INTRO
|-----|
|-----|
|---2-|
|---2-|
|---0-|
|-0---|
PM

RIFF A
|---------|
|---------|
|-2-2-5-7-|
|-2-2-5-7-|
|-0-0-3-5-|
|---------|

RIFF B
|-------------|
|-------------|
|-2-2-5-------|
|-2-2-5-------|
|-0-0-3-------|
|-------0h3p0-|

VERSE 1,2,3 4
|---------------------------------------|---------|---------|
|---------------------------------------|---------|---------|
|-2-----------------------------2-2-5-7-|-2-2-5-7-|-2-------|
|-2-----------------------------2-2-5-7-|-2-2-5-7-|-2-------|
|-0-0-0-0-0-0-0-0-0-0-0-0-0-0-0-0-0-3-5-|-0-0-3-5-|-0-------|
|---------------------------------------|---------|---------|
PM.........................

CHORUS
|-----------------|
|-----------------|
|-----7--7----7-7-|
|-----7--7----7-7-|
|-----5--5----5-5-|
|-----------------|

FIGURE A 1,2,3 4
|---------------|-----|-|
|---------------|-----|-|
|---------------|-----|-|
|-2-------------|-----|-|
|-2-------------|-----|-|
|-0-0-0-0-0-0-0-|-3---|-|

SOLO
|---------------------------------------------|
|-22~r20-22~r20-20----17-17-17----------------|
|------------------17-19-19-19b21-19b21r19b21-|
|---------------------------------------------|
|---------------------------------------------|
|---------------------------------------------|

|-----------------------------------------|
|-----------------------------------------|
|----------------17-19-19-17-19b21-19-17~-|
|----------17-19--------------------------|
|-17h18h19--------------------------------|
|-----------------------------------------|

|-20p19p17-----------------------|
|----------20-17-20-17-20-20b22~-|
|--------------------------------|
|--------------------------------|
|--------------------------------|
|--------------------------------|

OUTRO
|---|
|---|
|-2-|
|-2-|
|-0-|
|---|


( h hammer-on ,
p pull-off ,
b bend ,
r release ,
~ vibrato ,
PM palm-muting )


----------------------------------------------------------------------


song structure:

INTRO
RIFF A x7
RIFF B

VERSE
CHORUS
RIFF A x3
RIFF B

VERSE
CHORUS
RIFF A x4
FIGURE A

RIFF A x7 | w/ SOLO
RIFF B |

VERSE
CHORUS
RIFF A x4
CHORUS
RIFF A x4
FIGURE A

RIFF A x7
RIFF B
OUTRO


----------------------------------------------------------------------

OptimusPrime

Toegevoegd door OptimusPrime op vr 16 nov, 2001 9:26 pm

Frank Potters

Laatst bijgewerkt door Frank Potters op za 01 jul, 2017 11:59 pm

Auteur: ?
Componist: ?
Uitgever: ?
Taal: Engels

Reacties

CommonCrawl [Bot]

Volg Muzikum