Bryan Adams

Bryan Adams
Heaven_unplugged (Guitar tab)

Bryan Adams: Heaven (unplugged version)


INTRO

e|----------------------------------
B|----------1------------1----1-----
G|-------0-----0-------0----0---0---
D|---------------2-3----------------
A|---3------------------------------
E|----------------------------------


FIRST VERSE

e|------0-------------------------3-----------------------------1-------0-
B|-1----1-------------------------3----------3----------------3---------1-
G|-0----2-------------------------0--------0----------------2--------2----
D|-2----2-------------------------0----(0)----------------0--------2------
A|-3----0-------------------------2---------------------------------------
E|--------------------------------3---------------------------------------
Oh, thinking about all our younger years, there was only you and me

e|-------------1--------------3---
B|-------------3--------------3---
G|---------2--------------0-------
D|-------0----------------0-------
A|------------------------2-------
E|------------------------3-------
We were young and wild and free



e|------0-------------------------3--------------------------------1-------0-
B|-1----1-------------------------3----------3-------------------3---------1-
G|-0----2-------------------------0--------0-------------------2--------2----
D|-2----2-------------------------0----(0)-------------------0--------2------
A|-3----0-------------------------2------------------------------------------
E|--------------------------------3------------------------------------------
Now, nothing can take you away from me, we've been down that road before


e|----------------1----------------------3-----------------
B|--------3-------3-----3----------------3-----------------
G|----2--------2----2-0-0----------------0-----------------
D|-0-------------------------------------0-----------------
A|---------------------------------------2-----------------
E|---------------------------------------3-----------------
But that's over now, you keep me comin' back for more


CHORUS

e|----1----------3-----------0----(0)----------------------------0--------
B|----1----------3-----------1-----1-------------------1---------1-----1--
G|----2----------0-----------2---2---------------------0---------2-----2--
D|----3----------0-----------2---2-------------------2---2-------2--------
A|---------------2-----------0---------------(2)--3--------3---------0----
E|---------------3--------------------------------------------------------
And Baby you're all that i want, when you're lying here in my arms


e|-----1---------3-------0------0------------------------
B|-----1---------3-------1------1---------------3--------
G|-----2---------0-------2-----------------0--------0----
D|-----3---------0-------2----2----2-------------------0-
A|---------------2-------------------0-------------------
E|---------------3---------------------3-----------------
I'm finding it hard to believe, we're in heaven


e|----1----------3-----------0----(0)----------------------------0--------
B|----1----------3-----------1-----1-------------------1---------1-----1--
G|----2----------0-----------2---2---------------------0---------2-----2--
D|----3----------0-----------2---2-------------------2---2-------2--------
A|---------------2-----------0---------------(2)--3--------3---------0----
E|---------------3--------------------------------------------------------
And Love is all that i need, and i found it there in your heart

e|--1---------3-------0------0-----------------------3--------------------------
B|--1---------3-------1------1---------------3---------------3---3------3-----3-
G|--2---------0-------2-----------------0--------0-----------0---0------0-----0-
D|--3---------0-------2----2----2--------------------------0----------0---------
A|------------2-------------------0---------------------2------2---2h3-----3----
E|------------3---------------------3-------------------------------------------
It isn't to hard to see we're in heaven



[C] [G]
Oh, [Am]once in your life you find someone
[Dm] [Am]
Who will turn your world around
[Dm] [G]
Bring you up when you're feeling down
[C] [Am] [G]
Yeah, nothing could change what you mean to me
[Dm] [Am]
Oh there's lots that I could say
[Dm] [G]
But just hold me now, 'cause our love will light the way



CHORUS 2 (The Chords are strummed down)



[F] [G] [Am]
Baby you're all that I want
[C] [F]
When you're lying here in my arms
[F] [G] [Am] [G]
I'm finding it hard to believe we're in heaven (FILL1)
[F] [G] [Am]
And love is all that I need
[C] [F]
And I found it here in your heart
[F] [G] [Am] [G]
It isn't too hard to see we're in heaven (FILL 2)


FILL 1
e|-3-----3-
B|---3---3-
G|-------0-
D|-------0-
A|-------2-
E|---------


FILL 2
e|----/5--5\3--3\2/3--2--/--5--2--
B|-3------------------3--/--5--3--
G|--------------------------------
D|--------------------------------
A|--------------------------------
E|--------------------------------


BRIDGE

[Dm] [F]
I've been waiting for so long
[C] [Am]
For something to arrive
[Dm] [G]
For love to come along
[Dm] [F]
Now our dreams are coming true
[C] [Am]
Through the good times and the bad
[G]
Yeah, I'll be standing there by you.


FLUTE SOLO


CHORUS (same pattern as the first chorus)

OUTRO
e|-----1------3---------0-------------0-----------1------
B|-----1------3---------1-------------1-----------1------
G|---2------0--------3-----3-------0-----0-----2-----2---
D|------------------------------------------------------- 2 times
A|-3--------------0------------3------------3------------
E|--------3----------------------------------------------


e|----------------------------------
B|----------1------------1----1-----
G|-------0-----0-------0----0---0---
D|---------------2-3---------------- 3 times
A|---3------------------------------
E|----------------------------------

we're in heaven


ENJOY!

kimpa

Toegevoegd door kimpa op di 05 aug, 2003 3:54 pm

Auteur: ?
Componist: ?
Uitgever: ?
Taal: Engels

Reacties

CommonCrawl [Bot]

Volg Muzikum