Bryan Adams

Bryan Adams
The Only Thing That Looks Good On Me Is You (Guitar tab)

artrist : bryan adams
song : the only thing that looks good on me is you
album : 18 till i die / best of me

tabbed by : vijay
email : vijay_k@888.nu


here we go.....


song starts like this , lets call it fig 1

e---------------------------------------
b----------------------7----------------
g------5/7----5/7------------7---------- after this the rythm guitar
d--------------------------------------- starts
a---------------------------------------
e---------------------------------------


then play the fig given below twice, lets call it fig 2

e---------/14----11--------9---11---11--
b---------------------11----------------
g---------------------------------------
d---------------------------------------
a---------------------------------------
e---------------------------------------

play fig 1 and fig 2 wherever u feel its reqrired in the song


the rythm guitar starts off like this

C#5 B5 F#5

e-------------------------------------------------------------
b-------------------------------------------------------------
g-------------6-6-6------6----6---4-4-4-----------------------
d------6-4-6--6-6-6------6----6---4-4-4-------5----5----------
a-------------4-4-4-4--4-4--4-4---2-2-2-------5--5-5----------
e----------------------------------------3--3-3----3----------


then play this till the song ends

C#5 B5 F#5

e-------------------------------------------------------------
b-------------------------------------------------------------
g------6-6-6------6----6---4-4-4------------------------------
d------6-6-6------6----6---4-4-4-------5----5-----------------
a------4-4-4-4--4-4--4-4---2-2-2-------5--5-5-----------------
e---------------------------------3--3-3----3-----------------

(the chords played thru out this song is C#5,B5,F#5 with the above rythm.
but the chords r quite different in the bridge. refer the bridge part of
the lyrics)


lyrics:

verse 1:

well I don't look good in no armani suits
no Gucci shoes or designer boots
i've tried the latest things from a to z
but there's just one thing that looks good on me


chorus 1 :

the only thing I want,
the only thing I need,
the only thing I chose,
the only thing that looks good on me is you.


veres 2:

I'm not satisfied with Versace style.
Put those patent leather pants in the circular file.
Sometimes I thing I might be lookin' good,
But there's only one thing that fits like it should.



chorus 2 :(same as before)

Bridge:(think the chords r quite different here for the first 5 lines, its
E, B, C#, E, G#5, try to find out where it changes. last line its
same as other part of the song)

yeah, it's you.
it could only be you.
nobody else will ever do.
yeah baby, it's you.
that I stick to.
yeah, we stick like glue.


ending chorus :


the only thing I want
the only thing I need,
the only thing I chose,
the only thing that looks good on me is you.


----------------------------------------------------------------------------

key:

/ = slide up.

note:

this is all i could figure out. this tab is not accurate. any corrections,
comments, requests for any other bryan adams songs, email me at .........
vijay_k@888.nu, i'll definitely get back to u. meanwhile have a gr8 time.

OptimusPrime

Toegevoegd door OptimusPrime op zo 01 dec, 2002 8:28 am

Auteur: ?
Componist: ?
Uitgever: ?
Taal: Engels

Reacties

CommonCrawl [Bot]

Volg Muzikum