Big Head Todd And The Monsters

Big Head Todd And The Monsters
Vicent Of Jersey (Guitar tab)

#
#

Date: Tue, 16 Apr 1996 11:15:46 -0500 (CDT)
From: FJB Fan
Subject: TAB: VINCENT OF JERSEY by BHTM



VINCENT OF JERSEY
written by Big Head Todd and the Monsters
Midnight Radio (c) 1991

It's best to play this with an acoustic guitar and using your fingers
instead of a pick. Anyway, here goes:

vincent..
E Bm E C#m B A F# C#m
-----------------9-----------------------------------------------------------
-----------------9-----------------------------------------------------------
---------1-------9--9----9---------------1-------9--9--8--6----------------9-
---------2------11--9h11-9h11-11\-----2--2------11-11--9--7--7--7-------11---
---------2------11--9h11-9h11-11\---0-2--2------11-11--9--7--7--7------------
-12-\-0--0---9---9--9----9-----9\---0-0--0--/-9--------------5--5--2--9------


B E C#m E C#m
---------------------------------------9-----------------------------------
---------------------------------------9-----------------------------------
-8--x-8-7h8-7h8------1-----------------9---9----9------------------------9-
-9--x-9-7h9-7h9------2----------------11---9h11-9h11--0-2---------------11-
-9--x-9-7h9-7h9------2----------------11---9h11-9h11--0-2---------------11-
-7--x-7-7---7---0-0--0--0-0--0-0-0-9---9---9----9-----0-0--0-0--0-0-0-9--9-

Someday,
B A F# C#m B E F# A C#m E F# A C#m B
----------------------------------------------------------------------------
----------------------------------------------------------------------------
-8--6---6------------9---9-8--------------------------1-----------------8---
-9--7---7-----4-----11--11-9------2--4----7---11--9---2----4----7----11-9--
-9--7-x-7-----4-----11--11-9------2--4----7---11--9---2----4----7----11-9---
-7--5-x-5--0--2---9--9---9-7------0--2--5-5--9-9--7---0--2-2--5-5--9--9-7---

E F# C#m B A
---------------------------
---------------------------
-1-----------9------8---6--
-2----4-----11-11---9---7--
-2----4-----11-11---9---7--
-0--2-2---x--9--9---7---5--

I don't think I made any mistakes copying this down, but write me if you
have any questions.
ENJOY And keep listening to BHTM.

FJB Fan (Denny)

OptimusPrime

Toegevoegd door OptimusPrime op ma 19 nov, 2001 9:50 am

Auteur: ?
Componist: ?
Uitgever: ?
Taal: Engels

Reacties

CommonCrawl [Bot]

Volg Muzikum