Jello Biafra

Jello Biafra
Full Metal Jackoff (Guitar tab)

#
Date: Tue, 8 Aug 1995 22:15:47 -0600 (MDT)
From: Jeff Mutt
Subject: Full Metal Jackoff by Jello Biafra and Doa

NOTE:I was just wondering why you put thats progress by jello and doa
that I sent a while ago in the dead kennedys section.... I was just
wondering if it was a mistake or not...

Full Metal Jackoff

there two main parts to this song and thats basically it...
part 1:use mutes with this... but you probally know that if you have the
album
e-|------------------------------------------------------
B-|------------------------------------------------------
G-|------------------------------------------------------
D-|-4-4-4-x-x-4-x-4-x-4-4-4-x-4-4-4-x-x-4-x-4-x-4-4-4--2-
A-|-4-4-4-x-x-4-x-4-x-4-4-4-x-4-4-4-x-x-4-x-4-x-4-4-4--2-
E-|-2-2-2-x-x-2-x-2-x-2-2-2-x-2-2-2-x-x-2-x-2-x-2-2-2--0-
I dunno if I tabbed the rythem out right...

part 2:
e-|-----------------------------------------------------------------
B-|-----------------------------------------------------------------
G-|-4-4-4-4-4-4-4-4-4-4-4-4-4-4-4-4-2-2-2-2-2-2-2-2-----------------
D-|-4-4-4-4-4-4-4-4-4-4-4-4-4-4-4-4-2-2-2-2-2-2-2-2-4-4-4-4-4-4-4-4-
A-|-2-2-2-2-2-2-2-2-2-2-2-2-2-2-2-2-0-0-0-0-0-0-0-0-4-4-4-4-4-4-4-4-
E-|-------------------------------------------------2-2-2-2-2-2-2-2-

thats the basically the song... theres some little solo parts or
something but theres some little solo parts but I don't care about them
cause this is good enuff for me...

transcribed by rambozo jjm@nucleus.com

OptimusPrime

Toegevoegd door OptimusPrime op ma 19 nov, 2001 9:50 am

Auteur: ?
Componist: ?
Uitgever: ?
Taal: Engels

Reacties

CommonCrawl [Bot]

Volg Muzikum