Bob Marley

Bob Marley
Lively Up Yourself Ver 3 (Bass tab)

Bob Marley's "Lively Up yourself"
Tabbed by Hunter McKee


Introduction/chorus
----------------------------------------------------------
----------------------------------------------------------
----------- 2-------- 2-5------------5-4----------------
---------3-------- 3---------------3---------------------

Verse
----------------------------------------------------------
----------------------------------------------------------
------------2-3-5-5----5-3-2-------------2-3-5-------
----------3---------------------3--------3---------------

And there you have it.
If you have any questions/comments/complaints
Send them to me at Bgame74@aol.com

OptimusPrime

Toegevoegd door OptimusPrime op zo 01 dec, 2002 8:32 am

Auteur: ?
Componist: ?
Uitgever: ?
Taal: Engels

Reacties

CommonCrawl [Bot]

Volg Muzikum