The Project Hate MCMXCIX

The Project Hate MCMXCIX
Believing Is Bleeding (Guitar tab)

Song: Believing is Bleeding
Band: The Project Hate
Album: When we are done your flesh will be ours

Written by Kenth Philipson, Jorgen Sandstom and Mia Stahl

Tabbed by Logan Murdoch

I haven't completed this tab yet, I have only got the main riffs and not the solos. I put this up because I haven't found a project hate tab anywhere. This band rocks check out their website at www.projecthate.net I will put the rest up when I figure it out get to it, enjoy.

Tuning Low to high

B-E-A-D-F#-B

~Vibrato
\Slide

Riff 1
B |--------------------------------------------------------------|
F#|--------------------------------------------------------------|
D |--------------------------------------------------------------|
A |----0-2-3~-2-0-2~--0-2-3~-2-0----0-2-3-2-3-3\5-3-5-5\7-5-3-2~-|
E |------------------------------4~------------------------------|
B |--------------------------------------------------------------|

"Walk beside me and seek serenity......"

B |-------------------------------------------------------------------|
F#|-------------------------------------------------------------------|
D |-------------------------------------------------------------------|
A |-0-2-3/5-3~-0-2~--0-2-3/5-3~-0---0-2-3/5-3~-5-5/7-5~-7-7/9-7~-5~-3~|
E |-------------------------------4~----------------------------------|
B |-------------------------------------------------------------------|

0:58 "taste my extacy....

B |--------------------------------------------------------------|
F#|--------------------------------------------------------------|
D |----------------------------------------------2-0-------------|
A |-2~-2-2p0-2----3~-2p0------2-3-3/5~-5-5/3-3-------3-2-0-------|
E |----------------------4----------------------------------4-3~-|
B |--------------------------------------------------------------|

1:26 Just after "and you are forlong"


The song is mostly made up of these three riffs which are repeated
sometimes with slight variations.

Lyrics
BELIEVING IS BLEEDING

Walk beside Me and seek serenity
Walk with burnt wings, wings that I burned
Inhale Me lost ones, experience My hell
You are all lost in sweet beauty, I yearn

So yearn now My angel, yearn for your breath
I give to you what you deserve,the sweet kiss of death
I feed you your heart, bitter taste of love
And breed with thee, forsaken flea, fallen from above

Taste My Ecstacy, the sweetness of it all
I am decieved and I am reborn
I will bless thee with My flesh
You're forsaken and You're forlorn
Don't fear Me angels, I'll show you other Truths

Listen to the Chants of My soul
Don't fear Me angels, I'll show you other Truths
Listen to the Chants of My soul
So I kiss the angels and bid them farewell
Oh, I kill the angels

Believing is Bleeding

So bleed now My angel, bleed to be free
All You've seen have been surreal, cheated and decieved
Now follow Me, I'm heaven, through hollow skies and lies
Bid farewell, save youself, I am Your Christ

Taste My Ecstacy, the sweetness of it all
I am decieved and I am reborn
I will bless thee with My flesh
You're forsaken and You're forlorn

And finally My angel, bleed one last time
Bid farewell to innocence, kill what's divine
And say goodbye to heaven, the holow skies and lies
Open up your bleeding eyes, believe Me...

I'm Your Christ

So I kill the angels
And bid them farewell
Believing is bleeding
And Bleeding is Believing

OptimusPrime

Toegevoegd door OptimusPrime op do 14 aug, 2003 7:26 pm

Auteur: ?
Componist: ?
Uitgever: Massacre Records
Uitgegeven in: 2001
Taal: Engels

Reacties

CommonCrawl [Bot]

Volg Muzikum