The Flys

The Flys
Shes So Huge Ver 2 (Bass tab)

BTAB: She's So Huge
Artist: The Flys
Album: Holiday Man
Author: Rattman (jratt0@hotmail.com)

**Padrino's Bass Tab Exclusive!**

Verse:
G-----------------
D-----------------
A---------0-0-2-2-
E-0-0-3-3---------

Pre-Chorus:
"If it fails me..."
G-------------------------
D-------------------------
A-------------------------
E-5-5-5-5-5-5-5-3-5-3-5-5-

Chorus:
G---------------------------------------
D---------------------------------------
A-----------------------------0-0-0-0-0-
E-0-0-0-0-0-2-2-2-2-2-3-3-3-3-----------


Taken from Padrino's Bass Tab Archive: http://members.xoom.com/jszalma/

OptimusPrime

Toegevoegd door OptimusPrime op do 14 aug, 2003 4:49 pm

Auteur: ?
Componist: ?
Uitgever: ?
Taal: Engels

Reacties

CommonCrawl [Bot]

Volg Muzikum