The Flys

The Flys
No Sad Story (Guitar tab)

Author/Artist: The Flys
Title: No Sad Story
Album: Outta My Way
Transcribed by: czhead
Email: dhudson4@bellsouth.net

The Flys are a very cool band for those of you who don't know because you only listen to music on
the radio and all you know of The Flys is "Got you where I Want You."
Well, check out their new CD, and see what they're all about.


This is my first tab, so go easy on me.
For Riff 1 i only gave the chords, so you will have to listen to the song to get the
rhythm and such. Riff 1 varies a little, but I think it's the same 2 chords throughout.
Please send questions, comments, etc.

---------------|--------------------------------------------------------------
---------------|--------------------------------------------------------------
---------------|--------------------------------------------------------------
-8---13--------|--8-8-8-8/--11-11-11-11-11/--13-13-13-13-13-13-13\------------
-8---13--------|--8-8-8-8/--11-11-11-11-11/--13-13-13-13-13-13-13\------------
-6---11--------|--6-6-6-6/---9--9--9--9--9/--11-11-11-11-11-11-11\------------
Riff 1/main riff Riff 2/chorus

------------------------------------------------------------------------------
------------------------------------------------------------------------------
------------------------------------------------------------------------------
--8-8-8-8/--11-11-11-11\--6-6-6-6-6-6-6-6/------------------------------------
--8-8-8-8/--11-11-11-11\--6-6-6-6-6-6-6-6/------------------------------------
--6-6-6-6/---9--9--9--9\--4-4-4-4-4-4-4-4/------------------------------------
That's pretty much it,I think. Have fun!

OptimusPrime

Toegevoegd door OptimusPrime op zo 01 dec, 2002 9:54 am

Auteur: ?
Componist: ?
Uitgever: ?
Taal: Engels

Reacties

CommonCrawl [Bot]

Volg Muzikum