The Flys

The Flys
Carol (Guitar tab)

#research. Remember to view this file in Courier, or other monospaced font. #
#See http://www.olga.net/faq/ for more information. #



Date: Fri, 11 Sep 1998 22:33:24 +0200
From: Ben Hagai
Subject: f/flys/carol.tab

"(That's Not) Carol" - By the Flys

I Heard You Say!


e|----------------------------------------------------------------|
B|----------------------------------------------------------------|
G|--5--7---7-7--5--7--7-7--5--7--5-----5--------------------------|
D|----------------------------------8-----8--8-8--7--8-8--7--8-8--|
A|----------------------------------------------------------------|
E|----------------------------------------------------------------|

e|--------------------------| X2
B|--------------------------|
G|--------------------------|
D|--7--8--7--5--7--5--5-5---|
A|--------------------------|
E|--------------------------|

A5 C5 D5 C5
That's ...
A5 C5 D5 C5
That's ...
G5 F#5
These ...

Solo:

e|----------------------------------------------------| X2
B|--1--3-3--5-5--5h6p5-3--3-6-5-3-5-3-s5-5--3h5p3--1--|
G|----------------------------------------------------|
D|----------------------------------------------------|
A|----------------------------------------------------|
E|----------------------------------------------------|

F#5 E5 G5
It's ..
F#5 E5 G5 (G5)
It's ...

F#5 E5 G5
It's ..
F#5 E5 G5 (G5) F#5
It's a ..
--------------------------------------------------------------
Suggestion, Correction, Or the Bass Part-

Ilan Ben Hagai
bagai@inter.net.il

OptimusPrime

Toegevoegd door OptimusPrime op di 18 dec, 2001 12:59 pm

Auteur: ?
Componist: ?
Uitgever: ?
Taal: Engels

Reacties

CommonCrawl [Bot]

Volg Muzikum