STP (Stone Temple Pilots)

STP (Stone Temple Pilots)
Down (Guitar tab)

Artist: Stone Temple Pilots
Song: Down
Album: No. 4
By: Marc Callahan
E-Mail: FrankStallone@hotmail.com

Dropped-D Tuning

Intro:

-------------------------------------------------------------------------------
--------------------------------------------------------------------------------
--------------------------------------------------------------------------------
-3--0--0------3--0--0---------3--0--0------3--0--0-------7\5----------
-3--0--0------3--0--0---------3--0--0------3--0--0-------x------------
-3--0--0---0--3--0--0---------3--0--0---0--3--0--0-------7\5----------

------------------------------------------------------------------------------
-------------------------------------------------------------------------------
-------------------------------------------------------------------------------
-3--0--0------3--0--0---------3--0--0------3--0--0--------------------
-3--0--0------3--0--0---------3--0--0------3--0--0--------------------
-3--0--0---0--3--0--0---------3--0--0---0--3--0--0--------------------


-------------------------------------------------------------------------------
-------------------------------------------------------------------------------
-------------------------------------------------------------------------------
-6--7---10----6--5--3--0----0---0-----0--3--0-------------------------
-6--7---10----6--5--3--0----0---0-----0--3--0-------------------------
-6--7---10----6--5--3--0----0---0-----0--3--0-------------------------

-------------------------------------------------------------------------------
-------------------------------------------------------------------------------
-------------------------------------------------------------------------------
-6--7---10----6--5--3--0----0---0-----0--3--0-------------------------
-6--7---10----6--5--3--0----0---0-----0--3--0-------------------------
-6--7---10----6--5--3--0----0---0-----0--3--0-------------------------

-------------------------------------------------------------------------------
-------------------------------------------------------------------------------
-------------------------------------------------------------------------------
-6--7---10----6--5--3--0----0---0-----0--3--0-------------------------
-6--7---10----6--5--3--0----0---0-----0--3--0-------------------------
-6--7---10----6--5--3--0----0---0-----0--3--0-------------------------

-------------------------------------------------------------------------------
-------------------------------------------------------------------------------
-------------------------------------------------------------------------------
-6--7---10----6--5--3--0----0---0-----0--0--0-------------------------
-6--7---10----6--5--3--0----0---0-----0--0--0-------------------------
-6--7---10----6--5--3--0----0---0-----0--0--0-------------------------

Verse:
------------------------------------------------------------------------------
------------------------------------------------------------------------------
------------------------------------------------------------------------------
-3--0--0------3--0--0---------3--0--0------3--0--0--------------------
-3--0--0------3--0--0---------3--0--0------3--0--0--------------------
-3--0--0--0---3--0--0---------3--0--0---0--3--0--0--------------------
Pleased To Meet You

------------------------------------------------------------------------------
------------------------------------------------------------------------------
------------------------------------------------------------------------------
-3--0--0------3--0--0---------3--0--0------3--0--7--------------------
-3--0--0------3--0--0---------3--0--0------3--0--x--------------------
-3--0--0---0--3--0--0---------3--0--0---0--3--0--7--------------------
Nice To Know Me

------------------------------------------------------------------------------
-------------------------------------------------------------------------------
-------------------------------------------------------------------------------
-3--0--0------3--0--0---------3--0--0------3--0--0--------------------
-3--0--0------3--0--0---------3--0--0------3--0--0--------------------
-3--0--0---0--3--0--0---------3--0--0---0--3--0--0--------------------
What's The Message?

------------------------------------------------------------------------------
------------------------------------------------------------------------------
------------------------------------------------------------------------------
-3--0--0------3--0--0---------3--0--0------3--0--0--------------------
-3--0--0------3--0--0---------3--0--0------3--0--0--3/8\--------------
-3--0--0--0--3--0--0----------3--0--0--0---3--0--0--3/8\--------------
Will You Show Me?

---------------------------------------------------------------------------
---------------------------------------------------------------------------
-3--0--0---x--x---3--0--0---------------------------------------------
-3--0--0---x--x---3--0--0---------------------------------------------
-3--0--0---x--x---3--0--0----5---4---2.7---------------------------
(Harmonics)
I've Been Waiting

---------------------------------------------------------------------------
---------------------------------------------------------------------------
---------------------------------------------------------------------------
-3--0--0---x--x---3--0--0---------------------------------------------
-3--0--0---x--x---3--0--0---------------------------------------------
-3--0--0---x--x---3--0--0----5---4---2.7---------------------------
(Harmonics)
A Long Time Now

----------------------------------------------------------------------
----------------------------------------------------------------------
----------------------------------------------------------------------
-3--0--0---x--x---3--0--0---------------------------------------------
-3--0--0---x--x---3--0--0---------------------------------------------
-3--0--0---x--x---3--0--0----5---4---2.7------------------------------
(Harmonics)
So Here's The Answer

----------------------------------------------------------------------
----------------------------------------------------------------------
----------------------------------------------------------------------
-3--0--0---x--x---3--0--0----3--0-------------------------------------
-3--0--0---x--x---3--0--0----3--0-------------------------------------
-3--0--0---x--x---3--0--0----3--0-------------------------------------
You're All Mine Now!

Chorus:
------------------------------------------------------------------------------
------------------------------------------------------------------------------
-------------------------------------------------------------------------------
-6--7---10----6--5--3--0----0---0-----0--3--0-------------------------
-6--7---10----6--5--3--0----0---0-----0--3--0-------------------------
-6--7---10----6--5--3--0----0---0-----0--3--0-------------------------
Yeah,_______ I've Been Waiting For
------------------------------------------------------------------------------
-------------------------------------------------------------------------------
-------------------------------------------------------------------------------
-6--7---10----6--5--3--0----0---0-----0--3--0-------------------------
-6--7---10----6--5--3--0----0---0-----0--3--0-------------------------
-6--7---10----6--5--3--0----0---0-----0--3--0-------------------------
My Sunday Girl

-------------------------------------------------------------------------------
-------------------------------------------------------------------------------
-------------------------------------------------------------------------------
-6--7---10----6--5--3--0----0---0-----0--3--0-------------------------
-6--7---10----6--5--3--0----0---0-----0--3--0-------------------------
-6--7---10----6--5--3--0----0---0-----0--3--0-------------------------
Yeah,______ I've Been Waiting For

------------------------------------------------------------------------------
-------------------------------------------------------------------------------
-------------------------------------------------------------------------------
-6--7---10----6--5--3--0----0---0-----0--3--0-------------------------
-6--7---10----6--5--3--0----0---0-----0--3--0-------------------------
-6--7---10----6--5--3--0----0---0-----0--3--0-------------------------
My Sunday Girl, Now

-------------------------------------------------------------------------------
-------------------------------------------------------------------------------
-------------------------------------------------------------------------------
-3--0--0------3--0--0---------3--0--0------3--0--0--------------------
-3--0--0------3--0--0---------3--0--0------3--0--0--------------------
-3--0--0---0--3--0--0---------3--0--0---0--3--0--0--------------------
Pleased To Meet You

-------------------------------------------------------------------------------
------------------------------------------------------------------------------
------------------------------------------------------------------------------
-3--0--0------3--0--0---------3--0--0------3--0--7--------------------
-3--0--0------3--0--0---------3--0--0------3--0--x--------------------
-3--0--0---0--3--0--0---------3--0--0---0--3--0--7--------------------
Nice To Know Me

-----------------------------------------------------------------------------
------------------------------------------------------------------------------
------------------------------------------------------------------------------
-3--0--0------3--0--0---------3--0--0------3--0--0--------------------
-3--0--0------3--0--0---------3--0--0------3--0--0--------------------
-3--0--0---0--3--0--0---------3--0--0---0--3--0--0--------------------
What's The Message?

------------------------------------------------------------------------------
------------------------------------------------------------------------------
------------------------------------------------------------------------------
-3--0--0------3--0--0---------3--0--0------3--0--0--------------------
-3--0--0------3--0--0---------3--0--0------3--0--0--3/8\--------------
-3--0--0---0--3--0--0---------3--0--0---0--3--0--0--3/8\--------------
Will You Show Me?

---------------------------------------------------------------------------
----------------------------------------------------------------------------
-3--0--0---x--x---3--0--0---------------------------------------------
-3--0--0---x--x---3--0--0---------------------------------------------
-3--0--0---x--x---3--0--0----5---4---2.7------------------------------
(Harmonics)
I've Been Waiting

---------------------------------------------------------------------------
----------------------------------------------------------------------------
----------------------------------------------------------------------------
-3--0--0---x--x---3--0--0---------------------------------------------
-3--0--0---x--x---3--0--0---------------------------------------------
-3--0--0---x--x---3--0--0----5---4---2.7---------------------------
(Harmonics)
A Long Time Now

----------------------------------------------------------------------
----------------------------------------------------------------------
----------------------------------------------------------------------
-3--0--0---x--x---3--0--0---------------------------------------------
-3--0--0---x--x---3--0--0---------------------------------------------
-3--0--0---x--x---3--0--0----5---4---2.7------------------------------
(Harmonics)
So Here's The Answer

----------------------------------------------------------------------
----------------------------------------------------------------------
----------------------------------------------------------------------
-3--0--0---x--x---3--0--0----3--0-------------------------------------
-3--0--0---x--x---3--0--0----3--0-------------------------------------
-3--0--0---x--x---3--0--0----3--0-------------------------------------
You're All Mine Now!

Chorus:
----------------------------------------------------------------------
----------------------------------------------------------------------
----------------------------------------------------------------------
-6--7---10----6--5--3--0----0---0-----0--3--0-------------------------
-6--7---10----6--5--3--0----0---0-----0--3--0-------------------------
-6--7---10----6--5--3--0----0---0-----0--3--0-------------------------
Yeah,_______ I've Been Waiting For

----------------------------------------------------------------------
----------------------------------------------------------------------
----------------------------------------------------------------------
-6--7---10----6--5--3--0----0---0-----0--3--0-------------------------
-6--7---10----6--5--3--0----0---0-----0--3--0-------------------------
-6--7---10----6--5--3--0----0---0-----0--3--0-------------------------
My Sunday Girl

----------------------------------------------------------------------
----------------------------------------------------------------------
----------------------------------------------------------------------
-6--7---10----6--5--3--0----0---0-----0--3--0-------------------------
-6--7---10----6--5--3--0----0---0-----0--3--0-------------------------
-6--7---10----6--5--3--0----0---0-----0--3--0-------------------------
Yeah,______ I've Been Waiting For

----------------------------------------------------------------------
----------------------------------------------------------------------
----------------------------------------------------------------------
-6--7---10----6--5--3--0----0---0-----0--3--0-------------------------
-6--7---10----6--5--3--0----0---0-----0--3--0-------------------------
-6--7---10----6--5--3--0----0---0-----0--3--0-------------------------
My Sunday Girl, Now

Bridge:
----------------------------------------------------------------------
-----------------------------------------------------------------------------------
----------------------------5/7--7--7------5/7--7--7------5/7--7------
-7--6---5---4----2/3\2--0---5/7--7--7------5/7--7--7------5/7--7------
-7--6---5---4----2/3\2--0---3/5--5--5------3/5--5--5------3/5--5------
-7--6---5---4----2/3\2--0-------------0--0------------0--0---------------
Will You Follow Me Down Now? Down Now?

----------------------------------------------------------------------------------
-----------------------------------------------------------------------------------
----------------------------5/7--7--7------5/7--7--7------5/7--7------
-7--6---5---4----2/3\2--0---5/7--7--7------5/7--7--7------5/7--7------
-7--6---5---4----2/3\2--0---3/5--5--5------3/5--5--5------3/5--5------
-7--6---5---4----2/3\2--0------------0--0-------------0--0---------------
Will You Follow Me Down Now? Down Now?

----------------------------------------------------------------------
----------------------------------------------------------------------
----------------------------------------------------------------------
-10---9---8---7---6----6-----4----4-----------------------------------
-10---9---8---7---6----6-----4----4-----------------------------------
-10---9---8---7---6----6-----4----4-----------------------------------
Will You Follow Me Down? Go!

Solo (With Wah-Wah):
-------10------------------------------------------------13--------------------------
-13b------13--10---10--13----------------------------------------10-----------
----------------------------------12--10-----0--12--------------12------12-------
--------------------------------------------12-----------------------------------------
----------------------------------------------------------------------------------------
----------------------------------------------------------------------------------------

---------------------------------------------------------------------------------------------
-----------------------------------------------12-------------------------------------------
-12p10------10------10--12b-----10--------10b--------10--12--10--12--10--
-----------12------12----------------------------------------------------------------------
-----------------------------------------------------------------------------------------------
-----------------------------------------------------------------------------------------------

-----------------------------------------------------------------------------
-12------10--------------------12b-----------------12b----------------
------10-------------------------14b-------14b----14b----------------
------------------------------------------------------------------------------
----------------10---8--10---------------------------------------------------
-----------------------------------------------------------------------------

------------------------17b----17--16--15--13--------17--15---13-------
-12--13--15b-----------------------------------------------------15---------
-------------------0--0------------------------------0--0-----------------------
-----------------------------------------------------------------------------------
-----------------------------------------------------------------------------------
-----------------------------------------------------------------------------------

-----------------------------13b---------------------------------------------------
-----------15b--------15-------10-----------------------------------------------
-0--0--0-----------------------------12p10---------------10h12/14----------
-------------------------------------------------12--10h12---------------------
-------------------------------------------------------------------------------------
-------------------------------------------------------------------------------------

------------------------------10------------13p10---------13p10---------13p10---
-------------------------13b------13--10---------13p10---------13p10----------
-14p13p12\10------------------------------------------------------------------------
---------------------12-------------------------------------------------------------------
--------------------------------------------------------------------------------------------
--------------------------------------------------------------------------------------------

----------13p10---------13b---------------------------------------------------
-13p10---------13p10-------9/10--9-----------------------13b-----------
----------------------------------------------12p10-----------------------------
--------------------------------------------------------12--0----------------------
-------------------------------------------------------------------------------------
------------------------------------------------------------------------------------

----------------------------------------------------------------------------
-----------------------------------------------------------------------------
-3--0--0---x--x---3--0--0----------------------------------------------
-3--0--0---x--x---3--0--0----------------------------------------------
-3--0--0---x--x---3--0--0----5---4---2.7------------------------------
(Harmonics)

----------------------------------------------------------------------------
----------------------------------------------------------------------------
-3--0--0---x--x---3--0--0---------------------------------------------
-3--0--0---x--x---3--0--0---------------------------------------------
-3--0--0---x--x---3--0--0----5---4---2.7------------------------------
(Harmonics)

----------------------------------------------------------------------------
----------------------------------------------------------------------------
-3--0--0---x--x---3--0--0---------------------------------------------
-3--0--0---x--x---3--0--0---------------------------------------------
-3--0--0---x--x---3--0--0----5---4---2.7------------------------------
(Harmonics)

------------------------------------------------------------------------------
------------------------------------------------------------------------------
-3--0--0---x--x---3--0--0-------0--3--0-------------------------------
-3--0--0---x--x---3--0--0-------0--3--0-------------------------------
-3--0--0---x--x---3--0--0-------0--3--0-------------------------------

Chorus:
------------------------------------------------------------------------------
------------------------------------------------------------------------------
-------------------------------------------------------------------------------
-6--7---10----6--5--3--0----0---0-----0--3--0-------------------------
-6--7---10----6--5--3--0----0---0-----0--3--0-------------------------
-6--7---10----6--5--3--0----0---0-----0--3--0-------------------------
Yeah,_______ I've Been Waiting For

------------------------------------------------------------------------------
------------------------------------------------------------------------------
-------------------------------------------------------------------------------
-6--7---10----6--5--3--0----0---0-----0--3--0-------------------------
-6--7---10----6--5--3--0----0---0-----0--3--0-------------------------
-6--7---10----6--5--3--0----0---0-----0--3--0-------------------------
My Sunday Girl

--------------------------------------------------------------------------------
-------------------------------------------------------------------------------
-------------------------------------------------------------------------------
-6--7---10----6--5--3--0----0---0-----0--3--0-------------------------
-6--7---10----6--5--3--0----0---0-----0--3--0-------------------------
-6--7---10----6--5--3--0----0---0-----0--3--0-------------------------
Yeah,______ I've Been Waiting For

-------------------------------------------------------------------------------
-------------------------------------------------------------------------------
--------------------------------------------------------------------------------
-6--7---10----6--5--3--0----0---0-----0--3--0-------------------------
-6--7---10----6--5--3--0----0---0-----0--3--0-------------------------
-6--7---10----6--5--3--0----0---0-----0--3--0-------------------------
My Sunday Girl, Now

------------------------------------------------------------------------------
-------------------------------------------------------------------------------
--------------------------------------------------------------------------------
-6--7---10----6--5--3--0----0---0-----0--3--0-------------------------
-6--7---10----6--5--3--0----0---0-----0--3--0-------------------------
-6--7---10----6--5--3--0----0---0-----0--3--0-------------------------
Yeah,_______ I've Been Waiting For

-------------------------------------------------------------------------------
-------------------------------------------------------------------------------
-------------------------------------------------------------------------------
-6--7---10----6--5--3--0----0---0-----0--3--0-------------------------
-6--7---10----6--5--3--0----0---0-----0--3--0-------------------------
-6--7---10----6--5--3--0----0---0-----0--3--0-------------------------
My Sunday Girl

-------------------------------------------------------------------------------
--------------------------------------------------------------------------------
-------------------------------------------------------------------------------
-6--7---10----6--5--3--0----0---0-----0--3--0-------------------------
-6--7---10----6--5--3--0----0---0-----0--3--0-------------------------
-6--7---10----6--5--3--0----0---0-----0--3--0-------------------------
Yeah,______ I've Been Waiting For

-------------------------------------------------------------------------------
-------------------------------------------------------------------------------
--------------------------------------------------------------------------------
-6--7---10----6--5--3--0----0---0-----0--3--0-------------------------
-6--7---10----6--5--3--0----0---0-----0--3--0-------------------------
-6--7---10----6--5--3--0----0---0-----0--3--0-------------------------
My Sunday Girl, Now

Outro:
-------------------------------------------------------------------------
-------------------------------------------------------------------------
-------------------------------------------------------------------------
-------------------------------------------------------------------------
-3--0--0------3--0--0---------3--0--0------3--0--0---------------
-3--0--0------3--0--0---------3--0--0------3--0--0----------------
-3--0--0---0--3--0--0---------3--0--0---0--3--0--0---------------
Pleased To Meet You

------------------------------------------------------------------------------
------------------------------------------------------------------------------
------------------------------------------------------------------------------
-3--0--0------3--0--0---------3--0--0------3--0--7--------------------
-3--0--0------3--0--0---------3--0--0------3--0--x--------------------
-3--0--0--0--3--0--0----------3--0--0---0--3--0--7--------------------
Nice To Know Me

-----------------------------------------------------------------------------
------------------------------------------------------------------------------
------------------------------------------------------------------------------
-3--0--0------3--0--0---------3--0--0------3--0--0--------------------
-3--0--0------3--0--0---------3--0--0------3--0--0--------------------
-3--0--0--0--3--0--0----------3--0--0---0--3--0--0--------------------
What's The Message?

------------------------------------------------------------------------------
------------------------------------------------------------------------------
-------------------------------------------------------------------------------
-3--0--0------3--0--0---------3--0--0------3--0--0----0---------0-----
-3--0--0------3--0--0---------3--0--0------3--0--0----0---------0-----
-3--0--0---0--3--0--0---------3--0--0---0--3--0--0----0--0-0--0-----
Will You Show Me?

--0--1--0---------------1/3\1-----------------------------------------
-------------3----------3/5\3-----------0-----------------------------
------------------------2/4\2-----------------------------------------
---------------------------------------------------------------------------
---------------------------------------------------------------------------
-----------------------------------------------------------------------------

OptimusPrime

Toegevoegd door OptimusPrime op do 14 aug, 2003 7:14 pm

Auteur: ?
Componist: ?
Uitgever: ?
Taal: Engels

Reacties

CommonCrawl [Bot]

Volg Muzikum