STP (Stone Temple Pilots)

STP (Stone Temple Pilots)
Days Of The Week (Guitar tab)

Date: Wed, 4 Jul 2001 00:57:37 -0400
From: "ben gu"
Subject: s/stone_temple_pilots/days_of_the_week.tab

STONE TEMPLE PILOTS
SHANGRI LA DEE LA
days of the week
by ben G. guitarwanker900@hotmail.com

standard tunning

verse's

|--------------------------------------------------------|
|--------------------------------------------------------|
|-4---6-6---4---4---6-6-----4--6--7--6--4---4--6--7-6-4-4|
|-6---7-7---6---6---7-7----------------------------------|
|-0---0-0---0---0---0-0----------------------------------|
|--------------------------------------------------------|
chorus
2x
|---2---------------\---3-3-3-3------------|
|---2---------------\---3-3-3-3-(play-3x)--|
|---3--(4x)--4-(4x)-\---4-4-4-4------------|
|---4--------4------\---5-5-5-5------------|
|---4--------2------\---5-5-5-5------------|
|---2---------------\---3-3-3-3------------|

bridge
key of A major in the "g box"
|--------------------3----------3-|
|---3h5p3--3------------5p3---5---|
|-------------4h5p4---------------|
|---------------------------------|
|---------------------------------|
|---------------------------------|

OptimusPrime

Toegevoegd door OptimusPrime op di 18 dec, 2001 1:20 pm

Auteur: ?
Componist: ?
Uitgever: ?
Taal: Engels

Reacties

CommonCrawl [Bot]

Volg Muzikum