STP (Stone Temple Pilots)

STP (Stone Temple Pilots)
Hollywood Bitch (Guitar chord)

From: "Ryan Liddell"
Subject: s/stone_temple_pilots/hollywood_bitch.crd
Date: Mon, 30 Jul 2001 21:31:03

SONG: Hollywood Bitch
ARTIST: Stone Temple Pilots
ALBUM: Shangri-La Dee Da

Tabbed by Ryan Liddell

INTRO (can play as shown or with just the bottom string)

E|-------------------------------------|
B|-------------------------------------|
G|-------------------------------------| X 4
D|-7-8-9-5b~---5-7-8-9-5b~--5-7-7-5-5--|
A|-7-8-9-5b~---5-7-8-9-5b~--5-7-7-5-5--|
E|-5-6-7-3b~---0-5-6-7-3b~--0-5-5-3-0--|

VERSE

E|---------------------------------|
B|---------------------------------|
G|---------------------------------|
D|-7-7-6-5--5-6-7--7-6-5--5-5-5-5--|
A|-7-7-6-5--5-6-7--7-6-5--5-5-5-5--|
E|-5-5-4-3--3-4-5--5-4-3--3-0-3-0--|

RIFF (played during verses)

E|----------|
B|-8p5-8p5--|
G|----------|
D|----------|
A|----------|
E|----------|

PRECHORUS

E|-------------------------| |----------------|
B|-------------------------| After |----------------|
G|-------------------------| X 4 the 4th |----------------|
D|-9-9-9--7-7-------0-0-0--| time.. |-4-4-4-4-4-4-4--|
A|-9-9-9--7-7--2-2--2-2-2--| |-4-4-4-4-4-4-4--|
E|-7-7-7--5-5--4-4--3-3-3--| |-2-2-2-2-2-2-2--|

CHORUS (this or the regular chords can be played)

B E B E B E G G A A
E|---------------------------------------------------|
B|---------------------------------------------------|
G|--------9---------9---------9----------------------|
D|---9----9----9----9----9----9----5----5----7----7--|
A|---9--7------9--7------9--7------5----5----7----7--|
E|-7---------7---------7---------3----3----5----5----|

OptimusPrime

Toegevoegd door OptimusPrime op wo 12 dec, 2001 10:18 pm

Auteur: ?
Componist: ?
Uitgever: ?
Taal: Engels

Reacties

CommonCrawl [Bot]

Volg Muzikum