Orange Sky

Orange Sky
Wanksta (Bass tab)

Intro
G-----------------------------------------------------------------------
D-----------------------------------------------------------------------
A-11-11-11-11-12-11-9-7---7-7-7-7-7-7-7---------------------------------
E---------------------------------------5-5-5-5-5-5-5-5-7-7-7-7-7-7-7-7-

Verse
G---------------------------------
D-----9-------7-------------------
A-7-----7-5-----5-----7-------9---
E-----------------5-----5-7-7---7-

Pre-Chorus
G-----------------
D-----------------
A-----------------
E-7-7-7-7-7-7-7-7-

Chorus
G---------------------------------
D---------------------------------
A---------------------------------
E-7---5---4-0-0-0-2-2-2-2-5-5-5-5-

Interlude
G-----------------
D-----------------
A-----------------
E-7-7-7-7-9-9-9-9-

Intro x4
Verse x8
Pre-Chorus x1
Chorus x8
Verse x8
Pre-Chorus x1
Chorus x8
Verse x5
Pre-Chorus x1
Chorus x8
Interlude x1
Intro x4

OptimusPrime

Toegevoegd door OptimusPrime op do 14 aug, 2003 5:57 pm

Auteur: ?
Componist: ?
Uitgever: ?
Taal: Engels

Reacties

CommonCrawl [Bot]

Volg Muzikum