Orange Sky

Orange Sky
Reality (Bass tab)

Intro
G---------------------------------
D---------------------------------
A-5-5-----------------------------
E---------0-0-----3-3-----5-5-----

Chorus
G---------------------------------
D---------------------------------
A-5-5-5-5-------------------------
E---------0-0-0-0-3-3-3-3-5-5-5-5-

Verse
G---------------------------------
D---------------------------------
A-5-5-5-5---------7-7-7-7---------
E---------3-3-3-3---------5-5-5-5-

Intro x2
Chorus x7
Verse x6
Chorus x6
Verse x6
PAUSE FOR GUITAR SOLO
Chorus x8

OptimusPrime

Toegevoegd door OptimusPrime op do 14 aug, 2003 5:57 pm

Auteur: ?
Componist: ?
Uitgever: ?
Taal: Engels

Reacties

CommonCrawl [Bot]

Volg Muzikum