Old Man's Child

Old Man's Child
My Demonic Figures (Guitar tab)

OLD MAN'S CHILD - MY DEMONIC FIGURES


Tabbed by : Zim-Zum5

All palm-muted notes are marked with these .....
/ or \ slide
h hammer-on


If you have something to say about this tab mail me
esamikkola@hotmail.com


Intro riff

|------------------------------------------------|
|------------------------------------------------|
|------------------------------------------------|
|------------------------------------------------|
|\0000000000000000000000000000000000000000000000-|
|------------------------------------------------|
Riff 1
|----------------| |-------------------------------|
|----------------| |-------------------------------|
|----------------| |-------------------------------|
|----------------| |---------10101010-9999-7777----|
|0000000000000000| |00000000-----------------------|
|----------------| |-------------------------------|

|-----------------------------------------------------|
|-----------------------------------------------------|
|-----------------------------------------------------|
|------------------------9999-7777-5555---------------|
|----------7777----------------------------------2222-|
|5555-8888------00000000----------------0000-3333-----|
^
Here is that fill which
is played here.It's played
differently 2nd time
|---------------------|
|---------------------|
|10-7---------7-10----|
|-----9-6-6-9---------|
|---------------------|
|---------------------|
. . . .
These are slightly
palm-muted

Here is that fill 2nd time

|----------------------|
|----------------------|
|------------7-10------|
|--------6-9-----------|
|----5-8---------------|
|4-7-------------------|


Verse riff

|--------------------------------|
|--------------------------------|
|--------------------------------|
|10-9-10-7-10----10-9-10-7-10----|
|-------------7---------------7--|
|--------------------------------|

|-------------------------------|
|-------------------------------|
|-------------------------------|
|9-7-9-5-9----9-7-9-5-9---------|
|----------5------------5-------|
|-------------------------------|

Riff 2

|----------------------------------------------------|
|----------------------------------------------------|
|----------------------------------------------------|
|10-9-10-7-10----12-10-12-9-12-----15-14-15-12-15----|
|-------------7----------------10-----------------12-|
|----------------------------------------------------|

|---------------------|
|---------------------|
|---------------------|
|14-12-14-10-14-------|
|---------------12----|
|---------------------|

Then fill 1 and riff 1


Riff 3

|------------------------------------------|
|------------------------------------------|
|------------------------------------------|
|7-7h9h10----------------------------------|
|----------8-8h10h12--5-5h7h8--7-7h8h10----|
|------------------------------------------|

Then comes that piano section

Play this chord in the end of that piano thing

|-----|
|-----|
|2----|
|2----|
|0----|
|-----|

Then play verse riff , riff 2 and riff 3

Song ends with this slide

|------|
|------|
|-9\---|
|------|
|------|
|------|

OptimusPrime

Toegevoegd door OptimusPrime op do 14 aug, 2003 5:56 pm

Auteur: ?
Componist: ?
Uitgever: Magic Arts Publishing
Uitgegeven in: 1997
Taal: Engels
Beschikbaar op: The Pagan Prosperity (1997)

Reacties

CommonCrawl [Bot]

Volg Muzikum