Emerson, Lake & Palmer

Emerson, Lake & Palmer
From The Beginning Ver 2 (Guitar tab)

from the beginning
emerson lake and palmer

intro
(freetime_
Harm.
----12--10-12\7--5-7h8p7-0---0h2h3-------3/8--8---------------0-
----12------------------------------------------------------0---
----12--------------------------------0------------------12-----
------------------------------------------------------10--------
------------------------------------0--------------0------------
--0-------------------------------------------------------------
(fast)

------------0---------------0---------------0---------------0-------
---------10---10---------12---10---------11---11---------11---11----
------11---------11---11---------11---10---------10---10---------10-
----0---------------0---------------0---------------0---------------
--------------------------------------------------------------------
--------------------------------------------------------------------

-------0------------0-------0------ -----------
-----6---6--------6---6-----6------ -----------
---5-------5----5-------5---5------ -----------
-0------------0-------------0------ ----0------
----------------------------------- ---------0-
----------------------------------- -2b---2b---

verses
riff 1
-0------------0---------------------------
-0------------0------------3-----------3--
-12-----------12-----------0-----------0--
-10-----x-----10-----------4-----x-----4--
---------------------0--------------------
------------------------------------------
(1)It might have been things I did
(2)But after a thing or two
(3)Well maybe I might have changed
(4)But after what's done is done

-------------------------3---------------3---------------5------------------
------5-------3--------1---1-----------3---3-----------6---6-----------6--0-
---------------------2-------2---2---4-------4---4---5-------5---5---5------
----5-------5------3-----------3---5-----------5---0-----------0---0--------
--3-----3-2-----2-----------------------------------------------------------
----------------------------------------------------------------------------
But don't be unkind it don't mean I'm blind
I think of lying in bed I shouldn't have said, but there it is
And not been so cruel, not been such a fool
I just can't recall, it doesn't matter at all

You see it's all clear
--------------5--------5--
--------------6--------3--
--------------5--------4--
--------------0--------0--
--------------------------
--------------------------


You were meant to be here
------------5-------------------0--------
------------6-----------------3----------
------------5---------------2------------
------------0-------------3--------------
------------------------2---------8tr(9)-
----------------------0------------------

chorus
(w/riff 1)
From the beginning

solo

-----------------------------------
-----------------------------------
------------------------------0----
---------------------0-2-3-4-------
-0---------0-1-2-3-4------------0--
---0-2-3-4-------------------------

-------------------------------------------------------------
----5-7-7b8r7-----------------8b10---8b10-8-5--8b10-8-5-8b10-
---5----------------5-7-7b9-5--------------------------------
--5-----------7---7------------------------------------------
-7-----------------------------------------------------------
-------------------------------------------------------------

------------------------------------------------8-10p12r10-8-8h10-
-------------------------------------8b10----10-------------------
-7b9r7p5-----------------5-7-7b9r7-5------------------------------
---------7p5h7--5-7----7------------------------------------------
------------------------------------------------------------------
------------------------------------------------------------------

----8-10p12r10-8-8h10------------------------------------------
-10-------------------------6-5--------------------8b10-8b10-8-
--------------------------5-----5--------5-7b9r7-5-------------
-------------------------7--------7----7-----------------------
---------------------------------------------------------------
---------------------------------------------------------------

-----------------
----------5b~~~~-
-7b9r7-5---------
-----------------
-----------------
-----------------

OptimusPrime

Toegevoegd door OptimusPrime op zo 01 dec, 2002 9:43 am

Auteur: ?
Componist: ?
Uitgever: ?
Taal: Engels

Reacties

CommonCrawl [Bot]

Volg Muzikum