Earthtone9

Earthtone9
Withered (Guitar tab)

author/artist: earthtone9
title: withered
album: lo-def(initon) discord
transcribed by: oz
email: oz@earthtone9.com
-|----------------------------------------------------------------------------
-|----------------------------------------------------------------------------
-|----------------------------------------------------------------------------
-|----------------------------------------------------------------------------
-|----------------------------------------------------------------------------
-|-15^-15^-15^-12^-15^-15^-15^-12^-15^-15^-15^-12^-15^-15^-15^-12^-3^---------
gtr 1 - intro
-|----------------------------------------------------------------------------
-|----------------------------------------------------------------------------
-|----------------------------------------------------------------------------
-|----------------------------------------------------------------------------
-|---------------------------------------------------6-5-4-4-3-2--------------
-|-15^-15^-15^-12^-15^-15^-15^-12^-15^-15^-15^-12^-0-5-4-3-3-2-1--------------
gtr 1 - intro pt2
-|---------------------------------3------------------------------------------
-|---------------------------------0------------------------------------------
-|-9-9-9-----9-9---9-9-9---9-9-9---0------------------------------------------
-|-8-8-8-2---8-8-2-8-8-8-2-8-8-8-2-0------5-8---------------------------------
-|-7-7-7-2---7-7-2-7-7-7-2-7-7-7-2-2------5-8---------------------------------
-|-0-0-0-0-0-0-0-0-0-0-0-0-0-0-0-0-3------3-6---------------------------------
gtr 1&2 - intro then
-|----------------------------------------------------------------------------
-|----------------------------------------------0-----------------------------
-|----------------------------------------------0-----------------------------
-|----------------------------------------------------------------------------
-|-7-7------7-7----7-7--7/8-7-7------7-7------0---------6-5-4-4-3-2-----------
-|-6p0--0-0-6p0--0-6p0--6/7-6p0--0-0-6p0--0-0-1---------5-4-3-3-2-1-----------
gtr 1 - verse / gtr 2 - feedback last repeat
-|----------------------------------------------------------------------------
-|----------------------------------------------------------------------------
-|-------------------------------------------------------7--------------------
-|-3------2---3------2---3----3/4--3-----2---3-----2-2-3-7--------------------
-|-3------2---3------2---3----3/4--3-----2---3-----2-2-3-5--------------------
-|-1p0--0-0-0-1p0--0-0-0-1p0--1/2--1p0-0-0-0-1p0-0-0-0-1----------------------
gtr 1&2 - chorus
-|----------------------------------------------------------------------------
-|----------------------------------------------------------------------------
-|-9-10----9-10---------------------------------------------------------------
-|-9-10-8--9-10-5-5-5-5/8/7---------------------------------------------------
-|-7-8--8--7-8--5-5-5-5/8/7---------------------------------------------------
-|------6-------3-3-3-3/6/5---------------------------------------------------
gtr 1&2 - chorus outro
-|----------------------------------------------------------------------------
-|----------------------------------------------------------------------------
-|-2--2--14--14---------------------------------------------------------------
-|-2--1--14--13---------------------------------------------------------------
-|-0--0--12--12---------------------------------------------------------------
-|----------------------------------------------------------------------------
gtr 1&2 - midsection pt1
-|-0--0-------0---------------------------------------------------------------
-|-0--8-------14--------------------------------------------------------------
-|-6--9-------13--------------------------------------------------------------
-|-7--7-------12--------------------------------------------------------------
-|-0--0-------0---------------------------------------------------------------
-|----------------------------------------------------------------------------
gtr 1 - midsection pt2 (w. wah) / gtr 2 - racket in 'a'

OptimusPrime

Toegevoegd door OptimusPrime op zo 01 dec, 2002 9:45 am

Auteur: ?
Componist: ?
Uitgever: ?
Taal: Engels

Reacties

CommonCrawl [Bot]

Volg Muzikum