Earthtone9

Earthtone9
Inertia 64800 (Guitar tab)

author/artist: earthtone9
title: inertia 64800
album: off kilter enhancement
transcribed by: oz
email: oz@earthtone9.com
-|----------------------------------------------------------------------------
-|----------------------------------------------------------------------------
-|----------------------------------------------------------------------------
-|----12-----12-----14-----14-----14-12-----12-----12-----14-----15-----15-14-
-|0-0----0-0----0-0----0-0----0-0-------0-0----0-0----0-0----0-0----0-0-------
-|----------------------------------------------------------------------------
gtr 1 - intro (clean)
-|----------------------------------------|-----------------------------------
-|----------------------------------------|-----------------------------------
-|----------------------------------------|-----------------------------------
-|-7--9-----------------------------------|-7--9--10--------------------------
-|-8--8-----------------------------------|-8--8--8---------------------------
-|----------------------------------------|-----------------------------------
gtr 1&2 - bridge (get rhythm from cd) last repeat
-|----------------------------------------------------------------------------
-|----------------------------------------------------------------------------
-|-9-10-12-14-----------------------------------------------------------------
-|-7-7--10-10-----------------------------------------------------------------
-|----------------------------------------------------------------------------
-|----------------------------------------------------------------------------
gtr 1&2 - chorus (get rhythm from cd)
-|----------------------------------------------------------------------------
-|-16-------------------------------------------------------------------------
-|-15-------------------------------------------------------------------------
-|-14-------------------------------------------------------------------------
-|----------------------------------------------------------------------------
-|----0-----------------------------------------------------------------------
gtr 1&2 - chorus outro (get rhythm from cd!)
-|----------------------------------------------------------------------------
-|----------------------------------------------------------------------------
-|-4--------------------------------------------------------------------------
-|-3-3------------------------------------------------------------------------
-|-2-3------------------------------------------------------------------------
-|---1------------------------------------------------------------------------
gtr 1&2 - midsection pt1 (get rhythm from cd)
-|----------------------|-12-10-13-12-10-15-17--------------------------------
-|----------------------|-x--x--x--x--x--x--x---------------------------------
-|-9-7-10-9-7-12-14-----|-9--7--10-9--7--12-14--------------------------------
-|-x-x-x--x-x-x--x------|-----------------------------------------------------
-|-7-5-8--7-5-10-12-----|-----------------------------------------------------
-|----------------------|-----------------------------------------------------
gtr 1 - midsection pt2 gtr 2 - midsection pt2
-|----------------------------------------------------------------------------
-|----------------------------------------------------------------------------
-|----------------------------------------------------------------------------
-|-7-----10-------------------------------------------------------------------
-|-7--8--10--12---------------------------------------------------------------
-|-5--5--8---8----------------------------------------------------------------
gtr 1 - last chorus

OptimusPrime

Toegevoegd door OptimusPrime op zo 01 dec, 2002 9:45 am

Auteur: ?
Componist: ?
Uitgever: ?
Taal: Engels

Reacties

CommonCrawl [Bot]

Volg Muzikum