Daryle Singletary

Daryle Singletary
I Let Her Lie (Guitar tab)

#


From Amardo@aol.com Fri Mar 21 11:40:48 1997
Date: Mon, 10 Mar 1997 23:30:31 -0500 (EST)
From: Amardo@aol.com
To: Guitar@olga.net
Subject: Chord, Lyrics, "I let her Lie", Daryle Singletary

[The following text is in the "unknown-8bit" character set]
[Your display is set for the "US-ASCII" character set]
[Some characters may be displayed incorrectly]

Title: I Let Her Lie
Artist: Daryle Singletary
Album: Daryle Singletary
Transcribed by: Aric Marderosian
Internet Address: amardo@aol.com





Capo 2nd fret

Intro:

D A G
e---4h7--------0h4--0------------------------
B----------------------5-----0--------4------
G-----------4-------------4--------4---------
D--------0-----------------------------------
A-------------------------------0------------
E----------------------------------------5---
D
e--------0h4--0------------------------------
B----------------0--4--5--4------------------
G-----4----------------------4--6------------
D--0-----------------------------------------
A--------------------------------------------
E--------------------------------------------
_______________________________________________________________________
(Entire verse picking pattern)
D A Bm G
e-----------0h4--------------0-------------4------------------5--------
B-----5----------5--------4-------------5-----5-----5-------5----5----5
G--------4-------------4-------------6-----------6-------0----------0--
D--0-------------------------------------------------------------------
A-------------------0-----------0-4------------------------------------
E-----------------------------------------------------5----------------
_______________________________________________________________________

Verse 1:
D A
She woke up, at six a.m.
Bm G
telling me she^�d been out with friends
D A G
e-----------0h4--0---------------------------
B-------------------5-----0-----------0------
G--------4-------------4-----------4---------
D----0---------------------------------------
A-------------------------------0------------
E----------------------------------------5---
^
D A G
and I let her lie

D A G
e-----------0h4--0---------------------------
B-------------------5-----0-----------0------
G--------4-------------4-----------4---------
D----0---------------------------------------
A-------------------------------0------------
E----------------------------------------5---
^
D A G
I let her lie

D(strum upwards) A
And in the glare of the morning sun
Bm G
she swore I was the only one
D A G
and I let her lie
D D4 D D4 D
e--------------0--4--0--4--
B--------5-----------------
G-----------4--------------
D----0---------------------
A--------------------------
E--------------------------
I let her lie

Chorus: (Strum through each chorus)
A Bm G D A
Cause the truth was too hard to handle, and I couldn^�t bare to lose
D A Bm G D G A
that girl. We were that small town scandal, but she was my only world

Verse 2:
D A
One teary night, she confessed her sins
Bm G
but she vowed to never cheat again
Solo (e) 12--11v--12--9v----------
(B) -----------------9--12v--
and I let her lie
D A G
I let her lie

Verse 3:
D A
Though she tried lord, she could not change
Bm G
And I only have myself to blame
Solo(e) 16--14v--16--12v--14-----
(B) ----------------------14v
Cause I let her lie
D D4 D D4
I let her lie

Chorus:
A Bm G D A
Cause the truth was too hard to handle, and I couldn^�t bare to lose
D A Bm G D G A
that girl. We were that small town scandal, but she was my only world

Verse 4:
D A
The day I left no words were said
Bm G
She was sound asleep on our double bed

D A G
and I let her lie
D A G
I let her lie
D A G
I let her lie
D
I let her lie

Outro: D
e--------------------------------4-------
B----0h4h5--4--------------------5-------
G--------------4--6--0-----------4-------
D-----------------------6--4-----0-------
A-----------------------------6--0-------
E--------------------------------0-------

OptimusPrime

Toegevoegd door OptimusPrime op zo 01 dec, 2002 4:07 pm

Auteur: ?
Componist: ?
Uitgever: ?
Taal: Engels

Reacties

CommonCrawl [Bot]

Volg Muzikum