Riverfenix

Riverfenix
Philosophy Ver 2 (Bass tab)

"PHILOSOPHY" by RIVERFENIX

intro/verse/outro

g--------------------------------
d--------------------------------
a--5--2-----0--5--2-----0---
e---------3------------3-------

chorus

g--------------------------------------------------------
d--0------0--------------------0-----0-----0---------
a------2------0--2-----0--0-----2-----0-----2------
e---------------------3---------------------------------

bridge

g----------------------------------
d----------------------------------
a--0--0--0--0--0--0--0--00--
e----------------------------------

end

g------
d------
a--5--
e------

OptimusPrime

Toegevoegd door OptimusPrime op do 14 aug, 2003 6:11 pm

Auteur: ?
Componist: ?
Uitgever: ?
Taal: Engels

Reacties

CommonCrawl [Bot]

Volg Muzikum