Flaw

Flaw
Payback (Guitar tab)

#

PAYBACK
As recorded by Flaw
(From the 2001 Album THROUGH THE EYES)

Music by Flaw
Transcribed by Jason Wall
email = sofew@earthlink.net

This song is played using seven strings
Tuning : BEADGBE

Intro:
3x
||-------------------||---------------------|
||-------------------||---------------------|
||o-----------------o||---------------------|
||--9-9-9-9-9-9-9-9--||-9-9-9-9-9-9-9-------|
||o-9-9-9-9-9-9-9-9-o||-9-9-9-9-9-9-9--2----|
||--7-7-7-7-7-7-7-7--||-7-7-7-7-7-7-7--2----|
||-------------------||----------------0----|


Chorus: 4x
||----------------------------------------------------||-------|
||----------------------------------------------------||-------|
||o--------------------------------------------------o||-------|
||----------------------------------------------------||-------|
||o-2-2-2--2-2--2-2-2--2-2--2-2-2-2-2--2-2-2--/8-7\--o||--2----|
||--2-2-2--2-2--2-2-2--2-2--2-2-2-2-2--2-2-2--/8-7\---||--2----|
||--0-0-0--0-0--0-0-0--0-0--0-0-0-0-0--0-0-0--/6-5\---||--0----|

Verse: let this these notes ring together
3x
||--------------------||------------------------|
||--------------------||------------------------|
||o------------------o||------------------------|
||--------------------||------------------------|
||o-7--7-8--7-7-8--7-o||--7--7-8--7-7-8--2-2----|
||--5-------5---------||--5-------5------2-2----|
||--------------------||-----------------0-0----|

Pretty soon its gonna....
5x
||-----------------------------------------------------------||----|
||-----------------------------------------------------------||----|
||o---------------------------------------------------------o||----|
||--------------------------------------------------------8--||----|
||o-------------------------------------------------------7-o||----|
||--8-7-0-8-7-0-8-7-0-8-7-0-8-0-8-0-8-7-0-8-7-0-8-7-0-8-7----||----|
||-----------------------------------------------------------||----|

Guess what?! You Suck!
|-----------------------------------------------------------------|
|-----------------------------------------------------------------|
|-----------------------------------------------------------------|
|---------------------------------9-9-9-9-9-9-9-9-9-9-9-9---------|
|---------------------------------9-9-9-9-9-9-9-9-9-9-9-9---------|
|-8-7-0-8-7-0-8-7-0-8-7-0-8-0-8-0-7-7-7-7-7-7-7-7-7-7-7-7---------|
|----------------------------------------------------------0-0----|

this is played after the 3rd chorus
|---------------------------------------------------------------------|
|---------------------------------------------------------------------|
|---------------------------------------------------------------------|
|------/999\-------/777\-------/9--/12--12--12--12--12--12--12--12----|
|---------------------------------------------------------------------|
|-2-2--/777\--2-2--/555\--2-2--/7--/10--10--10--10--10--10--10--10----|
|-0-0---------0-0---------0-0-----------------------------------------|

these get stuck in at the end of the chorus riff just listen
to the song for placement
|-------------------------||----------------------------------|
|-------------------------||----------------------------------|
|----------------------||----------------------------------|
|-------------------------||----------------------------|
|-2-2-2---2-2--2-2-2------||-2-2-2--2-2--2-2-2----------------|
|-2-2-2---2-2--2-2-2------||-2-2-2--2-2--2-2-2----------------|
|-0-0-0---0-0--0-0-0------||-0-0-0--0-0--0-0-0----------------|


Tablature Legend
----------------
/\ - slide into or out of (from/to "nowhere")
- natural harmonic

***************************************************************************************
* Generated using Power Tab Editor by Brad Larsen - http://powertab.guitarnetwork.org *

OptimusPrime

Toegevoegd door OptimusPrime op zo 01 dec, 2002 9:55 am

Auteur: ?
Componist: ?
Uitgever: ?
Taal: Engels

Reacties

CommonCrawl [Bot]

Volg Muzikum