For Amusement Only

For Amusement Only
Set The Story Straight (Guitar tab)

Band - For Amusement Only
Song - Set the Story Straight
Album - Where Did We Go Wrong ?
Tabbed By Tristan Collins
Email - all_my_fault69@hotmail.com
I must give most of the credit to Tim from for amusement only for the chord progressions and also Alicia Nichols I Borrowed your bridge interlude thingy then fixed it up a bit

for amusement only are a kick ass punk band from melbourne australia if you havent heard them u better and check their site out at www.fao.com.au u can d/l mp3s get chord progressions to their songs and buy their cd and tshirts
Intro - Guitar 1
e|-----------------------------------------------|
B|-----------------------------------------------|
G|-5----------------------5----5-----------------|
D|-5-----3-----5-555555---5----5----3-3-3--5-5-5-|
A|-5-----3-----5-555555---3----3----3-3-3--5-5-5-|
E|-------1-----3-333333-------------1-1-1--3-3-3-|
pm|------|

Intro - Guitar 2
e|---------|
B|---------|
G|-----5---|
D|---5---5-|
A|-3-------|
E|---------|


interlude guitar 2
e|-------------------------------------|
B|-------------------------------------|
G|-5--7--9-9--7--9--10--9--7-7--5-4--5-|or you can just play the notes on the g string cus both work fine
D|-x--x--x-x--x--x---x--x--x-x--x-x--x-|
A|-3--5--7-7--5--7---8--7--5-5--3-2--3-|
E|-------------------------------------|


Verse - guitars 1&2
e|-------------------|
B|-------------------|
G|---5---------------|
D|---5---7---3---5---|
A|---3---7---3---5---|
E|-------5---1---3---|


Chorus - Guitars 1&2
e|---------------------------|
B|---------------------------|
G|---5-5---------------------|
D|---5-5---7-7---3-3---5-5---|
A|---3-3---7-7---3-3---5-5---|
E|---------5-5---1-1---3-3---|


Solo (played with left handed tapping) for those who dunno how to left hand tap dont pick the note hit the string with a finger on your left hand over the fret noted below and quickly pull off the note to an open
guitar 2
e|---------------------------------------------------------|
B|---------------------------------------------------------|the solo also appears later in the song and u can hear it in the
G|-t5po0--t7po0--t9po0--t7po0--t10po0--t9po0--t7po0--t5po0-|fade out as well
D|---------------------------------------------------------|
A|---------------------------------------------------------|
E|---------------------------------------------------------|

guitar 1
Rhythm during solo
e|------------------------------|
B|------------------------------|
G|--55555--55555----------------|
D|--55555--55555--77777--55555--|
A|--33333--33333--77777--55555--|
E|----------------55555--33333--|


Outro - Guitars 1&2
e|----------|
B|----------|
G|----------|
D|--3-3--5--|
A|--3-3--5--|
E|--1-1--3--|

Lyrics:

It�s time, alright!
For us to stand up and fight
It�s time, alright!
To set the story straight tonight

I look around today
I see a messed up place
This world we live in
Doesn�t have a clue

About the things you say
Decisions that get made
They affect our lives so
Where�s our try, yeah!

It�s time, alright!
For us to stand up and fight
It�s time, alright!
To set the story straight tonight

You think we waste our time
Leading worthless lives
At school and home
We�ve done nothing wrong

You judge u son what we wear
And how we cut our hair
But we�re the future
So it�s up to you, yeah!
It�s up to you, oh yeah!

It�s time, alright!
For us to stand up and fight
It�s time, alright!
To set the story straight tonight

You�d rather run away

OptimusPrime

Toegevoegd door OptimusPrime op zo 01 dec, 2002 9:52 am

Auteur: ?
Componist: ?
Uitgever: ?
Taal: Engels

Reacties

CommonCrawl [Bot]

Volg Muzikum