Forgotten North

Forgotten North
Cabbage (Guitar tab)

The Notes are pretty simple I think, they just follow the name of
the song (C-A-B-B-A-G-E)

e----------------------------------
B----------------------------------
G----------------------------------
D---------------------------------- x whatever
A---3--0--2--2--0------------------
E------------------3--0------------

The chords in the chorus are just A5, G5, E5
and then

G---------------------
A---------2-----------
E---3--2--------------

OptimusPrime

Toegevoegd door OptimusPrime op zo 01 dec, 2002 9:52 am

Auteur: ?
Componist: ?
Uitgever: ?
Taal: Engels

Reacties

CommonCrawl [Bot]

Volg Muzikum