Four Tet

Four Tet
Everything Is Alright (Guitar tab)

This is a great song, but i couldnt find it anywhere, there are a few sligt
variations in the song but the guitar riff over the top remains the same
pretty much the whole way through.

First time

e ---------------------------------
A ---------------------------------
D ----10-10h12--10--13--13---8---8-
G --10--------10-------------------
B -8------------------11-------6---
E ---------------------------------

After the first time there is a slight change

e ----------------------------------
A ----------------------------------
D -10--10-10h12--10--13--13---8---8-
G ---10--------10-------------------
B -8-------------------11-------6---
E ----------------------------------

Enjoy, it's a great song, if there are any corrections please feel
free to get in touch.

J

OptimusPrime

Toegevoegd door OptimusPrime op zo 01 dec, 2002 9:51 am

Auteur: ?
Componist: ?
Uitgever: ?
Taal: Engels

Reacties

CommonCrawl [Bot]

Volg Muzikum