The Frogs

The Frogs
Hes The Prince (Guitar chord)

#

From: "Jesse Alora"
To: guitar@olga.net
Subject: TAB: He's The Prince by The Frogs
Date: Sat, 29 Nov 1997 14:28:29 PST

HE'S THE PRINCE - written by THE FROGS - tab by Jesse Alora


VERSE
E----------------------------------------------------
B----------------------------------------------------
G----------------------------------------------------
D-------------------7--------------------------------
A----------7--------5-------------7--------2---------
E----------5----------------------5--------0---------
He was five foot three and I sucked his cock

E----------------------------------------------------
B----------------------------------------------------
G----------------------------------------------------
D------------------------------------7---------------
A-----------2------------------------5-----7---------
E-----------0------------------------------5---------
He was purple, yeah, he came from Minneapolis


CHORUS
E----------------------------------------------------
B----------------------------------------------------
G----------------------------------------------------
D-----------------------------7----------------------
A------------7----------------5----------------7-----
E------------5---------------------------------5-----
He's the prince, he's the prince, he's the prince

E----------------------------------------------------
B----------------------------------------------------
G----------------------------------------------------
D----------------------------------------------7-----
A------------2----------------7----------------5-----
E------------0----------------5----------------------
He's the prince, he's the prince, he's the prince

E----------------------------------------------------
B----------------------------------------------------
G----------------------------------------------------
D---------7------------------------------------------
A---------5----2---------7---------------------------
E--------------0---------5---------------------------
Yeah, he's the prince


He was five foot three and I sucked his cock
He was purple, yeah, he came from Minneapolis
He was five foot three and I sucked his cock
He was purple, yeah, he came from Minneapolis
He's the Prince, he's the Prince
He's the Prince, he's the Prince
He's the Prince, he's the Prince
Yeah, he's the Prince
He was five foot three and he sucked my cock
He was purple, yeah, he came from Minneapolis
He was five foot three and he sucked my cock
He was purple, yeah, Prince Rogers Nelson
He's the Prince, he's the Prince
He's the Prince, he's the Prince
He's the Prince, he's the Prince
Yeah, he's the Prince

OptimusPrime

Toegevoegd door OptimusPrime op zo 01 dec, 2002 9:50 am

Auteur: ?
Componist: ?
Uitgever: ?
Taal: Engels

Reacties

CommonCrawl [Bot]

Volg Muzikum