Frozen Fire

Frozen Fire
Why Me (Guitar tab)

Why me?
by frozen fire
written by tim lindberg
standard tuning
(heavy distortion throughout song)

intro
(4 times)

|---------------------------------------------------------|
|---------------------------------------------------------|
|---------------------------------------------------------|
|--------7-7--9-9--5-5------------------------------------|
|---7-7-5-5--7-7--3-3-------------------------------------|
|--5-5----------------------------------------------------|

verse 1
palm muted
(6 times)

|---------------------------------------------------------|
|---------------------------------------------------------|
|-77777777------------------------------------------------|
|-77777777-99999999-55555555-77777777---------------------|
|-55555555-99999999-55555555-77777777---------------------|
|----------77777777-33333333-55555555---------------------|

chorus
(6 times)

|---------------------------------------------------------|
|---------------------------------------------------------|
|-----------7-7-7-7--9-9-9-9--5-5-5-5---------------------|
|--7-7-7-7--7-7-7-7--9-9-9-9--5-5-5-5---------------------|
|--7-7-7-7--5-5-5-5--7-7-7-7--3-3-3-3---------------------|
|--5-5-5-5------------------------------------------------|

verse 2
palm muted
(6 times)

|---------------------------------------------------------|
|---------------------------------------------------------|
|-77777777------------------------------------------------|
|-77777777-99999999-55555555-77777777---------------------|
|-55555555-99999999-55555555-77777777---------------------|
|----------77777777-33333333-55555555---------------------|

interlude

|---------------------------------------------------------|
|---------------------------------------------------------|
|---------------------------------------------------------|
|---------------------------------------------------------|
|--7-7-9-9-9-9-7-7-7-7-9-9-9-9-7-7------------------------|
|-0-0-0-0-7-7-5-5-0-0-0-0-7-7-5-5-------------------------|

chorus/outro
(8 times)

|---------------------------------------------------------|
|---------------------------------------------------------|
|-----------7-7-7-7--9-9-9-9--5-5-5-5---------------------|
|--7-7-7-7--7-7-7-7--9-9-9-9--5-5-5-5---------------------|
|--7-7-7-7--5-5-5-5--7-7-7-7--3-3-3-3---------------------|
|--5-5-5-5------------------------------------------------|

OptimusPrime

Toegevoegd door OptimusPrime op zo 01 dec, 2002 9:50 am

Auteur: ?
Componist: ?
Uitgever: ?
Taal: Engels

Reacties

CommonCrawl [Bot]

Volg Muzikum