Frozen Fire

Frozen Fire
Again (Guitar tab)

again
by frozen fire
written by tim lindberg

intro
heavy distortion
(4 times)

|---------------------------------------------------------|
|---------------------------------------------------------|
|---------------------------------------------------------|
|---------------------------------------------------------|
|---5-5-5-5-5-5-5-5-5-5-5-5-5-5-5-5-----------------------|
|--0-0-0-0-3-3-5-5-0-0-0-0-3-3-5-5------------------------|

Chorus
heavy distortion
(6 times)

|---------------------------------------------------------|
|---------------------------------------------------------|
|-----------7-7-7-7-7-7-x-5-5-5-5-x-----------------------|
|-7-7-7-7-x-7-7-7-7-7-7-x-5-5-5-5-x-5-5-5-5-5-5-----------|
|-7-7-7-7-x-5-5-5-5-5-5-x-3-3-3-3-x-5-5-5-5-5-5-----------|
|-5-5-5-5-x-------------------------3-3-3-3-3-3-----------|

verse 1
heavy distortion
(6 times)
palm muted

|---------------------------------------------------------|
|---------------------------------------------------------|
|----------77777777-55555555------------------------------|
|-77777777-77777777-55555555-77777777---------------------|
|-77777777-55555555-33333333-55555555---------------------|
|-55555555-------------------55555555---------------------|

chorus again
heavy distortion
(6 times)

|---------------------------------------------------------|
|---------------------------------------------------------|
|-----------7-7-7-7-7-7-x-5-5-5-5-x-----------------------|
|-7-7-7-7-x-7-7-7-7-7-7-x-5-5-5-5-x-5-5-5-5-5-5-----------|
|-7-7-7-7-x-5-5-5-5-5-5-x-3-3-3-3-x-5-5-5-5-5-5-----------|
|-5-5-5-5-x-------------------------3-3-3-3-3-3-----------|

interlude
(4 times)
Heavy distortion

|---------------------------------------------------------|
|---------------------------------------------------------|
|---------------------------------------------------------|
|---------------------------------------------------------|
|---5-5-5-5-5-5-5-5-5-5-5-5-5-5-5-5-----------------------|
|--0-0-0-0-3-3-5-5-0-0-0-0-3-3-5-5------------------------|

verse 2
heavy distortion
palm muted
(6 times)

|---------------------------------------------------------|
|---------------------------------------------------------|
|----------77777777-55555555------------------------------|
|-77777777-77777777-55555555-77777777---------------------|
|-77777777-55555555-33333333-55555555---------------------|
|-55555555-------------------55555555---------------------|

Chorus/ outro
heavy distortion
(8 times)

|---------------------------------------------------------|
|---------------------------------------------------------|
|-----------7-7-7-7-7-7-x-5-5-5-5-x-----------------------|
|-7-7-7-7-x-7-7-7-7-7-7-x-5-5-5-5-x-5-5-5-5-5-5-----------|
|-7-7-7-7-x-5-5-5-5-5-5-x-3-3-3-3-x-5-5-5-5-5-5-----------|
|-5-5-5-5-x-------------------------3-3-3-3-3-3-----------|

have fun with this awesome song!!!

OptimusPrime

Toegevoegd door OptimusPrime op zo 01 dec, 2002 9:50 am

Auteur: ?
Componist: ?
Uitgever: ?
Taal: Engels

Reacties

CommonCrawl [Bot]

Volg Muzikum